Acordes de Guitarra » B »Los Bunkers » Angel para un final (Tab)

Angel para un final
Los Bunkers

Letras, Acordes y Tabs para Guitarra, Bajo y Ukulele

  • Intro: F#m· D ·  A · C#m7 · D · E   2 veces
    
       F#m                         E
    Cuentan que cuando un silencio,  aparecía entre dos
     D                     A                    Cm7
       era que pasaba un ángel que les robaba la voz
     F#m                          D
       y hubo tal silencio el día,  que nos tocaba olvidar
    A                 C#7         D                   E
    que de tal suerte,  yo todavía,  no termine de callar.
    
    
       F#m                     E
    Todo empezó en la sorpresa,  en un encuentro casual
    D                       A                       C#m
      pero la noche es traviesa,  cuando se teje el azar
    F#m                               D
       sin querer se hace una ofrenda, que pacta con el dolor
    A                C#m                D                    E
      o pasa un ángel,  se hace leyenda,  y se convierte en amor.
    
  • FA#m-RE-LA-DO#m,RE,MI (VI Cuerda -0·2·4) X2
    
    FA#m
    Cuentan que cuando un silencio
    MI
    aparecía entre dos
    RE                LA
    era que pasaba un ángel
             DO#m
    que les robaba la voz.
    FA#m
    Y hubo tal silencio el día
    RE
    que nos tocaba olvidar
      LA             DO#m
    que de tal suerte yo todavía
    RE                MI(VI Cuerda -0·2·4)
    no terminé de callar.
    
    
    
  •                              ---INTRO---
    
      e|--2---5--4--2-------2--0-----------------------------------------|
      B|--2-----------3----------3----5p3-----5-----5-----5--------------|
      G|--2-------------------------------2------1-----2----4----1-2-4-6-|
      D|--4--------------------------------------------------------------|
      A|--4--------------------------------------------------------------|
      E|--2--------------------------------------------------------------|
    
    
      e|---9-7-5---5-5-2---------------------------------|
      B|--10-9-7---7-4-3--5p3----5-----5-----5-----------|
      G|---------------------2-----1-----2-----4--1-2----|
      D|----------------------------------------------4--|
      A|-------------------------------------------------|
      E|-------------------------------------------------|
    
    
                         ---INTERMEDIO---
    
    
  • +
    ¡Colabora con nosotros!
    Envíanos tu versión de esta canción

Letra de Angel para un final
Cuentan que cuando un silencio
aparecía entre dos
era que pasaba un ángel
que les robaba la voz.
Y hubo tal silencio el día
que nos tocaba olvidar
que de tal suerte yo todavía
no terminé de callar.
Todo empezó en la sorpresa
en un encuentro casual
pero la noche es traviesa
cuando se teje el azar
sin querer se hace una ofrenda
que pacta con el dolor
o pasa un ángel se hace leyenda
y se convierte en amor.
Ahora comprendo cual era el ángel
que entre nosotros pasó era el más terrible, el implacable
el más feroz.
Ahora comprendo en total
este silencio mortal
ángel que pasa besa y te abraza
ángel para un
final.
(guitarra)
Todo empezó en la sorpresa
en un encuentro casual
pero la noche es traviesa
cuando se teje el azar
sin querer se hace una ofrenda
que pacta con el dolor
o pasa un ángel se hace leyenda
y se convierte en amor.
Ahora comprendo cual era el ángel
que entre nosotros pasó era el más terrible, el implacable
el más feroz.
Ahora comprendo en total
este silencio mortal
ángel que pasa besa y te abraza
ángel para un
final.
Ladim :e2 b1 g2 d1 ax Ex
Preguntas o sugerencias Twitter: @rchavarriaarias




[Angel para un final chords][Angel para un final cifra]
© LaCuerda.net · aviso legal · privacidad · es · en · pt · contacto