Acordes de Guitarra » B »Los Bunkers » La exiliada del sur (Tab)

La exiliada del sur
Los Bunkers

Letras, Acordes y Tabs para Guitarra, Bajo y Ukulele

  • Intro:F#m A Bm F#m
    
    
    --9-7-9-7-9--7-9-/12--12-9-12-9-12--9-12-14--7---7---7-----------------
    ----------------------------------------------10---10---10/14-12-10 7--
    -----------------------------------------------------------------------
    -----------------------------------------------------------------------
    -----------------------------------------------------------------------
    ----------------------------------------------------------------------- bis
    
    
       F#m               A
    Un ojo dejé en los lagos
            D         C#m
    Por un descuido casual;
       F#m               A
    El otro quedó en Parral
           D         C#m
    En un boliche de tragos.
      G#m                D#
    
  • F#m                              A
    
    e||-------------------------12--12----12----12----12-14-||
    B||-14--12-14-12--14--12-14--------14----14----14-------||
    G||-----------------------------------------------------||
    D||-----------------------------------------------------||
    A||-----------------------------------------------------||
    E||-----------------------------------------------------||
    
        Bm                             F#m
    
    e||--------------------------------------||
    B||-12-----12-----12--12/14-12-----------||
    G||-----14----14---------------14--11----||
    D||--------------------------------------||
    A||--------------------------------------||
    E||--------------------------------------||
    
    
    Segunda Guitarra (coordinada con la primera):
    
  • Primera guitarra:
    
    e|-----------------------------------------------14----|
    b|-14----14----14----14-17-17--14-17-14-17-14-17-------|
    g|----16----16----16--------------------------------16-|
    d|-----------------------------------------------------|
    a|-----------------------------------------------------|
    E|-----------------------------------------------------|
    
    e|-------------------------|
    b|-------------14----------|
    g|-14-16-14-16----16-14----|
    d|----------------------16-|
    a|-------------------------|
    E|-------------------------|
    
    La segunda guitarra puede hacer esto:
    
    
    e|-9-7-9-7-9-7-9—9/12--12-9-12-9-12-9-12—12/14--|
    B|------------------------------------------------|
    
    e|-7-5-7-5-7-7/9-7-5---|
    b|-------------------7-|
    
    
    la versión de la primera guitarra se parece mucho a la legal,
    k toca el maury durán...
    
    
    
    grande los bunkers!!!
    y el francis durán k es mas lindo
    
    
    Saludos al 4to medio A 2009 del san Carlos de quilicura.
  • +
    ¡Colabora con nosotros!
    Envíanos tu versión de esta canción

Letra de La exiliada del sur
Un ojo dejé en los lagos
Por un descuido casual;
El otro quedó en Parral
En un boliche de tragos.
Recuerdo que mucho estrago
De niño vio el alma mía:
Miserias y alevosías
Anudan mis pensamientos;
Entre las aguas y el viento
Me pierdo en la lejanía.
Mi brazo derecho en Buin
Quedó, señores oyentes;
El otro por San Vicente
Quedó no sé con qué fin.
Mi pecho en Curacautín
Lo veo en un jardincillo
Mis manos, en Maitencillo
Saludan en Pelequén;
Mi blusa en Perquilauquén
Recoge unos pececillos.
(ahora se repite todo lo anterior)
Se me enredó en San Rosendo
Un pie al cruzar una esquina;
El otro en la Quiriquina
Se me hunde mares adentro.
Latió con pena en Temuco
Y me ha llorado en Calbuco
De frío, por una escarcha.
Voy y enderezo mi marcha
A la cuesta de Chacabuco.
Mis nervios dejo en Graneros,
La sangre en San Sebastián
Y en la ciudad de Chillán
La calma me bajó a cero;
Mi riñonada en Cabrero
Destruye una caminata
Y en una calle de Itata
Se me rompió el instrumento
Y endilgo pa' Nacimiento
Una mañana de plata.
Desembarcando en Riñihue
Se vio a la Violeta Parra
Sin cuerdas en la guitarra,
Sin hojas en el coligüe.
Una bandada de chirigües
Le vino a dar un concierto.
Desembarcando en Riñihue
Se vio a la Violeta Parra




[La exiliada del sur chords][La exiliada del sur cifra]
© LaCuerda.net · aviso legal · privacidad · es · en · pt · contacto