Acordes de Guitarra » B »Los Bunkers » Bailando Sólo (Tab)

Bailando Sólo
Los Bunkers

Letras, Acordes y Tabs para Guitarra, Bajo y Ukulele

  •  Dm - F (x4)
     Dm                                             F
     Ahora que estás aquí ahogado en medio de la gente
     Dm                                             F
     Y estás dispuesto a más de lo que puedes soportar
     Dm                                       F
     Los altavoces van amplificando las verdades
     Dm                                       F
     Ahora que estás aquí en medio de la soledad
    
    
    Coro....1
    Dm                         F
    Bailando solo en la oscuridad
                Am
    Te vas a acostumbrar
    G
    Al ver toda la vida pasar
    
    
    
  • e|---------------------------|
    B|-6-6---6-6---6-6---6---6-8-|
    G|-----7-----7-----7---7-----|
    D|---------------------------|
    A|---------------------------|
    E|---------------------------|
    
    Punteo 2:
    
    e|-5-5---5-5---5-5---5-6-5---|
    B|-----6-----6-----6-------6-|
    G|---------------------------|
    D|---------------------------|
    A|---------------------------|
    E|---------------------------|
    
    Francisco Duran:
    
    Punteo 1:
    
    
  • E|--------------------------------------------------------------||
    B|--------------------------------------------------------------||
    G|--10-10----10-10----10-10----10----10-12----------------------||
    D|--------12-------12-------12----12----------------------------||
    A|--------------------------------------------------------------||
    E|--------------------------------------------------------------||
    
    Rif 2
    E|--------------------------------------------------------------||
    B|--10-10------10-10----10-10----11-10--------------------------||
    G|--------10---------10-------10-------12-10--------------------||
    D|--------------------------------------------------------------||
    A|--------------------------------------------------------------||
    E|--------------------------------------------------------------||
    
     REm                                      FA
        Ahora que estás aquí ahogado en medio de la gente
        REm                                        FA
        y estás dispuesto a más de lo que puedes soportar
        REm                                        FA
    
  • +
    ¡Colabora con nosotros!
    Envíanos tu versión de esta canción
  • Tutorial
    HD
    INTRO
    Como tocar BAILANDO SOLO en guitarra - Los Bunkers [Tutorial Somos Posers]
    2:48

Letra de Bailando Sólo
Ahora que estás aquí ahogado en medio de la gente
Y estás dispuesto a más de lo que puedes soportar
Los altavoces van amplificando las verdades
Ahora que estás aquí en medio de la soledad
Bailando solo en la oscuridad
Te vas a acostumbrar
Al ver toda la vida pasar
Igual que una promesa al anochecer
Te puedes disolver
Al borde de un vaso de cristal
Verso...2
Ahora que estás aquí y que el futuro se te esconde
Ya has rasguñado el suelo y las paredes de tu habitación
No quieres ver el sol, no quieres nada por las tardes
Ninguna sensación que nos haga sentir mejor
Bailando solo en la oscuridad
Te vas a acostumbrar
A ver toda la vida pasar
Igual que una promesa al anochecer
Te puedes disolver
Al borde de un vaso de cristal
Final...
Lalalaralalalalarala (x4)
Saludos desde Chiloé Grande Los bunkers ............................




[Bailando Sólo chords][Bailando Sólo cifra]
© LaCuerda.net · aviso legal · privacidad · es · en · pt · contacto