Acordes de Guitarra » B »Los Bunkers » Nada nuevo bajo el sol (Tab)

Nada nuevo bajo el sol
Los Bunkers

Letras, Acordes y Tabs para Guitarra, Bajo y Ukulele

  • A   F#m      C#m   C#m    (x2)
    
    
       (VERSO 1)
    F#m                 C#m
    Minutos antes de que den las tres
    F#m                       C#m
    igual que ayer y antes de ayer
    E                     Bm
    sigo mirando al techo una y otra vez
    D                  C#m
    como si no tuviera nada más que hacer
    
    
       (VERSO 2)
    F#m                   C#m
    Yo nunca me sentí tan tonto
    F#m                 C#m
    al menos nunca como tú
    E                    Bm
    
  • Intro: G-Em-Bm-Bm (x2)
    
    Estrofa:
    Em                   Bm
    Minutos antes de que den las tres
    Em                         Bm
    igual que ayer y antes de ayer
    D                     Am
    sigo mirando al techo una y otra vez
    C                  Bm
    como si no tuviera nada más que hacer
    Em                    Bm
    Yo nunca me sentí tan tonto
    Em                  Bm
    al menos nunca como tú
    D                     Am
    no quiero levantar sospechas sobre mi
    C                    Bm
    espero que no tengas nada que decir
    
    
  • Intro: G-Em-Bm-Bm (x2)
    
    Em                   Bm
    Minutos antes de que den las tres
    Em                         Bm
    Igual que ayer y antes de ayer
    D                     Am
    Sigo mirando al techo una y otra vez
    C                  Bm
    Como si no tuviera nada más que hacer
    Em                    Bm
    Yo nunca me sentí tan tonto
    Em                  Bm
    Al menos nunca como tú
    D                     Am
    No quiero levantar sospechas sobre mí
    C                    G
    Espero que no tengas nada que decir
    Em                   D
    Lo intento todo para ser
    
  •           A         F#m         C#m         C#m    (x2)
    e|-------------------------------------------------------------|
    B|-------------------------------------------------------------|
    G|-------------------------------------------------------------|
    D|--------------------------------22--44--66--4--2--2--44-66--4|
    A|00--22--44--2--0--0--22--44--22------------------------------|
    E|-------------------------------------------------------------|
    
       (VERSO 1)
    F#m                 C#m
    Minutos antes de que den las tres
    F#m                       C#m
    igual que ayer y antes de ayer
    E                     Bm
    sigo mirando al techo una y otra vez
    D                  C#m
    como si no tuviera nada más que hacer
    
    
       (VERSO 2)
    
  •       F#                                         C#
    e|---------------------------------------------------------|
    B|---------------------------------------------------------|
    G|---------------------------------------------------------|
    D|---------------------------------------------------------|
    A|-----------------------------------77-----99----11-11-11-|
    E|---55--77--99------222-/77--99---------------------------|
    
    F#m                 C#m
    Minutos antes de que den las tres
    F#m                       C#m
    igual que ayer y antes de ayer
    E                     Bm
    sigo mirando al techo una y otra vez
    D                  A
    como si no tuviera nada más que hacer
    
    F#m                   C#m
    Yo nunca me sentí tan tonto
    F#m                 C#m
    
  • Intro
    G------------------------------------------------------------|
    D--------------4-4--4-4-4--2---------------------------------|
    A------------4---------------0--4-4--4---2--4-4---2/7-7-6-7--|
    E---5-5--5-5---------------------------4--------4------------|  X2
    
    verso:
    G------------------------------------------------------------|
    D-4-4--4-4--4-4--4-4-4--2------------------------------------|
    A-------------------------0-4-4--4---2-4--4---2/7-7-6-7------|
    E----------------------------------4--------4----------------|
    
    G------------------------------------------------------------|
    D-4-4—-4-4----4--4-4-4--2------------------------------------|
    A-----------4-------------0-4-4--4---2-4--4---2-4-2----------|
    E----------------------------------4--------4-------4-2------|
    
    G------------------------------------------------------------|
    D------------------------------------------------------------|
    A----------7-7--7-7-7--5-----------------------9-7---7-------|
    E-0-0-0/5----------------0-7-7--7-
  • +
    ¡Colabora con nosotros!
    Envíanos tu versión de esta canción
  • Tutorial
    HD
    Como Tocar Nada Nuevo Bajo El Sol Los Bunkers
    12:45

Letra de Nada nuevo bajo el sol
(VERSO 1)
Minutos antes de que den las tres
igual que ayer y antes de ayer
sigo mirando al techo una y otra vez
como si no tuviera nada más que hacer
(VERSO 2)
Yo nunca me sentí tan tonto
al menos nunca como tú
no quiero levantar sospechas sobre mi
espero que no tengas nada que decir
Lo intento todo para ser
mejor de que lo fui
de lo que fui hasta ayer
No hay nada nuevo bajo el sol
ni escombros de un amor
que pueda recoger, no tengo nada que
esconder...
(VERSO 3)
Algunos ya no saben que es amar
se portan bien cuando las tratan mal
se miran al espejo todo el tiempo para ver
las marcas que quedaron presas en su piel
Lo intento todo para ser
mejor de que lo fui
de lo que fui hasta ayer
No hay nada nuevo bajo el sol
ni escombros de un amor
que pueda recoger, no tengo nada que
esconder...
no tengo nada que esconder
Si fuera más de frente
o un poco más valiente
no bastaría con dejarlo todo así
Rebobinar las horas
no es lo que más me importa
yo sólo cuento con que estés aquí...
Lo intento todo para ser
mejor de que lo fui
de lo que fui hasta ayer
No hay nada nuevo bajo el sol
ni escombros de un amor
que pueda recoger
no tengo nada que esconder
no tengo nada que esconder...
uuoooohhhh...
uuoooohhhh...
**Muy buena canción de los Durán, me caen muy bien. Les dejo un
myspace para que lo vean, escuchen y me digan qué les parece:
www.myspace.com/remiremi01
¡Saludos desde la Cd. de México!




[Nada nuevo bajo el sol chords][Nada nuevo bajo el sol cifra]
© LaCuerda.net · aviso legal · privacidad · es · en · pt · contacto