Tablatura para Bajo de Los Bunkers: Me muelen a palos
Conexión · Inscripción
Letras y Acordes
Pantalla Completa
Imprimir
Versión Texto
Añadir Favorito
Otras Versiones

Mostrar Diagramas
Desfile Automático
Formato del Texto


Me muelen a palos(BAJ)

Los Bunkers

calidad:
bunk0713
AUTOR: Duran Duran
ALBUM: Barrio Estación (2008)
Enviado por chanta
Bueno aqui esta el mejor tema de Los Bunkers, en realidad es
muy sencillo...
Esta tablatura esta 100% correcta
(si no un 98%)

INTRO: (suena en el verso tambien)

G-------------------------------
D-------------------------------
A-2-2-2-4-5---------------------
E-----------3-3-3-3-3-0-0-0-0---

G-------------------------------|
D-------------------------------|
A-222222-4-5--------------------| X3
E------------3-3-3-3-3-0-0-0-0--|
(aqui empieza: "Salgo cada amanecer....")
(con las mismas posturas anteriores)

CORO(Me muelen a palos...)

G----------------|
D----------------|
A-2--4-5---------|
E---------0--3---|

G----------------|
D---------2--5---|
A-2--4-5---------|
E----------------|
(Caen piedras...)

G----------------|
D----------------|
A-2---5----------|
E---------3---0--|(fijense bien cuando suena)

FINAL:
G-----------------------------------|
D-----------------------------------|
A-0h2222222222-0h222222222----------|
E-----------------------------0-----|

eso es todo espero que les haya gustado
Este fichero es trabajo propio de su transcriptor y representa su interpretación personal de la canción. El material contenido en esta página es
para exclusivo uso privado, por lo que se prohibe su reproducción o retransmisión, así como su uso para fines comerciales.

© LaCuerda.net · Aviso Legal · Privacidad