Acordes de Guitarra » A »Attaque 77 » Yo te amo (Tab)

Yo te amo
Attaque 77

Letras, Acordes y Tabs para Guitarra, Bajo y Ukulele

  • B C# B C# B D# C# D# B/ X2
    
    B                D#                C# D# B
    Estoy enamorado, yo estoy conmovido,
    B                       D#            C# D# B      B C# B C# B
    yo te quiero tanto tanto, tanto tanto, mucho mucho
    D# C# D# B
        mucho mucho
    
    
    Yo estoy enamorado, enamorado de tu culo
    quiero chuparte la concha, quiero romperte el culo,    romperte el culo
    
    B                     D#            C# D# B                        /
    Yo te amo, yo te amo, yo te amo, yo te amo, /
     B                     D#            C# D# B/ ESTRIBILLO
    yo te amo, yo te amo, yo te amo, yo te amo! /
    
    INTRO X2
    
    
  • Mi primera tab y no se tocar!!!
    enjoy!!!
    
    intro /riff 1
    |-------------------------------------|
    |-------------------------------------|
    |--------------------9-9-9-9-7-7-9-7--|
    |--------------------7-7-7-7-5-5-7-5--| x2
    |--9-9-9-9-12-9-12-9------------------|    9
    |--7-7-7-7-10-7-10-7------------------|    7 se toca mas veces
    
    
    verse /riff 2
    |-------------------------------------|
    |-------------------------------------|
    |-------------------------9-9-7-7-----|
    |-------------------------7-7-5-5-----| x2
    |--9-----------12-12-12-12------------|
    |--7(let ring)-10-10-10-10------------|
                   (-------muted-------)
    
    
    solo!!! (batalle mucho para sacarlo aunque esta muy facil)
    
    |-----------------------------------------------|
    |-----------------------------------------------|
    |--------5-7-7-5--------------5-7-7-5-4-5-------|
    |--5-7-9---------9-7----5-7-9-------------7-5---|
    |-----------------------------------------------|
    |-----------------------------------------------|
    
    
    |------------
  • Esta canción es muy fácil… la sacaran al toque
    
    Intro:
    G|-------------------------------------------------
    D|------------------------------------------------- x2
    A|--2-2-2-2-4-2-4-2---6-6-6-6-4-4-6-4--------------
    E|-------------------------------------------------
    
    
    G|-------------------------------------------------
    D|------------------------------------------------- x2
    A|--22222222-6666-4444-----------------------------
    E|-------------------------------------------------
    Yo estoy enamorado, yo estoy confundido
    Yo te quiero tanto tanto, tanto tanto, mucho mucho
    
    
    Igual Al Intro:
    G|-------------------------------------------------
    D|------------------------------------------------- x2
    A|--2-2-2-2-4-2-4-2---6-6-6-6-4-4-6-4--------------
    E|-------------------------------------------------
    Mucho mucho!
    
    G|-------------------------------------------------
    D|------------------------------------------------- x2
    A|--22222222-6666-4444-----------------------------
    E|----------------------
  • +
    ¡Colabora con nosotros!
    Envíanos tu versión de esta canción

Letra de Yo te amo
Estoy enamorado, yo estoy conmovido,
yo te quiero tanto tanto, tanto tanto, mucho mucho
mucho mucho
Yo estoy enamorado, enamorado de tu culo
quiero chuparte la concha, quiero romperte el culo, romperte el culo
Yo te amo, yo te amo, yo te amo, yo te amo, /
yo te amo, yo te amo, yo te amo, yo te amo! /
Yo te amo, yo te quiero, te quiero romper el ano
y que salga mucha sangre, mucha mucha, mucha mucha, mucha, mucha!
Yo estoy enamorado, enamorado de tu culo
Quiero chuparte la concha, quiero romperte el culo
Romperte el culo, romperte el culo
Yo te amo, yo te amo, yo te amo, yo te amo,/ REPITE VARIAS VECES
yo te amo, yo te amo, yo te amo, yo te amo!/




[Yo te amo chords][Yo te amo cifra]
© LaCuerda.net · aviso legal · privacidad · es · en · pt · contacto
DINAMICO