Acordes de Guitarra » A »Attaque 77 » Los buenos deseos (Tab)

Los buenos deseos
Attaque 77

Letras, Notas, Punteos, Tablaturas y Acordes de Guitarra (Tabs & Chords)

  • Letra y Acordes
    '(D)                                      G   
    Hay un nuevo día, hay un nuevo día para comenzar
    D                                          G
    Todos tus deseos, los buenos deseos se te cumplirán
    
    Em       A                 G           D    
    Parece que el milagro es hoy, ya no esperes más,
    Em        A            A# D
    podés cambiar tu realidaaaad
    
    C                G        C               G   
    Hay un sueño dentro de ti, y un sueño dentro de mí
    C            G       A#            D  
    nunca lo dejes morir, no lo puedes permitir,
    A#          D           A
    no lo voy a permitir jamás...
    
    Hagan lo que, hagan lo que hagan no nos detendrán,
    digan lo que digan, sus palabras nunca nos convencerán
    
    
  • Tablatura
    solo
    e|-------------------------------------------|
    B|-------------------------------------------|
    G|-------------------------------------------|
    D|-----7---7h9-7-------7---7h9-7-------------|
    A|-5-9---9---------5-9---9------9-9-9h10-9-5-|
    E|-------------------------------------------|
    
    e|---------------------------------------|
    B|---------------------------------------|
    G|---------------------------------6-6-7-|
    D|-----7---7h9-7-------7---7h9-7-9-------|
    A|-5-9---9---------5-9---9---------------|
    E|---------------------------------------|
    
    e|-----------------------------------------|
    B|-----------------------------------------|
    G|-7-9-7-9-9^(11)--12-11-9--14-12-11h12-11-|
    D|-----------------------------------------|
    A|-----------------------------------------|
    E|-----------------------------------------|
    
    e|-------10--10-10-10-9-9-10---|
    B|-10h12--------------------9--|
    G|-----------------------------|
    D|-----------------------------|
    A|-----------------------------|
    E|---------------
  • +
    ¡Colabora con nosotros!
    Envíanos tu versión de esta canción

Letra de Los buenos deseos
Hay un nuevo día, hay un nuevo día para comenzar
Todos tus deseos, los buenos deseos se te cumplirán
Parece que el milagro es hoy, ya no esperes más,
podés cambiar tu realidaaaad
Hay un sueño dentro de ti, y un sueño dentro de mí
nunca lo dejes morir, no lo puedes permitir,
no lo voy a permitir jamás...
Hagan lo que, hagan lo que hagan no nos detendrán,
digan lo que digan, sus palabras nunca nos convencerán
Aún buscamos algo más, la vida es más que hacer dinero y nada más
Hay un sueño dentro de tí, y un sueño dentro de mí,'
gran tema nuevo!!!! aguante La rockolaaaaa jaj,
saludos, fran

Videos de Los buenos deseos
[ver más videos]

[ver todas las canciones]


© LaCuerda.net · Aviso Legal · Privacidad