Acordes de Guitarra » A »Attaque 77 » Iemanja (Tab)

Iemanja
Attaque 77

  • Tablatura
    e|-------------|
    B|-------------|
    G|-------------|
    D|-2-2-2--2----|
    A|-0-0-0--0-2--|
    E|--3-3----3-3-|
    
      Solo 1:18
    e|-----------------|----------------------|
    B|-----------5---5-|---------------8------|
    G|------5-7-5-7-5--|------5-7-5-7/9-9-7-5-|
    D|-7-5-7-----------|-7-5-7----------------|
    A|-----------------|----------------------|
    E|-----------------|----------------------|
    
    e|-------------------------------------------------------15----|
    B|-11/12/11/12-9-11/12/11/12-9-11/12/11/12~-/13/14/15/16p--16p-|
    G|-------------------------------------------------------------|
    D|-------------------------------------------------------------|
    A|-------------------------------------------------------------|
    
  • Tablatura
    ---------------
    
    Intro: RIFF:
    -----  ----
    
      A A G A       A A G B G A                 *1
    e---------------------------|             e----------------|
    b---------------------------|             b-13-14-15-16-17-|
    g---------------------------| x 4         g-12-13-14-15-16-|
    d-7-7-5-7-----5-7-7-5-9-5-7-|             d----------------|
    a-7-7-5-7-5h7---7-7-5-9-5-7-|             a----------------|
    E-5-5-3-5-------5-5-3-7-3-5-|             E----------------|
    
    e----------------|
    b-5~-5-----------|
    g------7-5-4h5p4-| Esto va al comienzo de
    d----------------| la tercera vez que se repite 
    a----------------| el RIFF
    E----------------|
    
    
  • Tablatura
    E-|--------------------------------|
    B-|--------------------------------|
    G-|----2-0-2-----0-----2-0-2/4-0-2-|
    D-|-2--2-0-2-0h2----2--2-0-2/4-0-2-|
    A-|-0---------------0--------------|
    e-|--------------------------------|
    
    Riff 2
    E-|-----------------------|
    B-|-5---------------------|
    G-|-7b(9)-7b(9)-5-4h5p4---|
    D-|-----------------------|
    A-|-----------------------|
    e-|-----------------------|
    
    Riff 3
    E-|------------------|
    B-|-12-13-14-15-17---|
    G-|-9--10-11-12-14---|
    D-|------------------|
    
  • +
    ¡Colabora con nosotros!
    Envíanos tu versión de esta canción

Letra de Iemanja
Final 2:09 (en realidad es saxo, fijense como sale)
Punteo o A
Buen intento, buena intención,
Conquistarás el mundo con tu canción
Que no conmueve, no deslumbra…
Frente al mar es nada, y nada de eso existe
Punteo
Aires de gloria, seguridad, grandes hazañas,
Vida triunfal, mas progreso, mas creación,
Lujo, fama, poder…nada de eso existe…
Punteo
Guerra santa, revolución,
Pose humilde,superación,
Vida al límite, proliferar…
Madre natura, único Dios…
Aire, agua, sol y nada más existe…
Punteo
Nada más existe, nada de eso
Causa justa , salvar a la humanidad
Hedonismo, frivolidad,
Drogas de moda, mediocridad
Sale Iemanja reina del mal
Tú eres todo y nada más existe.
Punteo
Final
Yo se que la letra esta mal organizada, pero asi la consegui
mas facil seguir la cancion.



© LaCuerda.net · aviso legal · privacidad · contacto