Acordes de Guitarra » A »Attaque 77 » Hay una bomba en el colegio (Tab)

Hay una bomba en el colegio
Attaque 77

Letras, Acordes y Tabs para Guitarra, Bajo y Ukulele

  • Intro: E5-A5 B5(x4) + Riff 1 (x4)
    
      E5*             A5*    B5*
    1)Hay una bomba en el colegio
      E5*           A5*   B5*
      pronto, todos a correr
      E5*                       A5*         B5*
      El cuadro de Sarmiento tirado en el suelo
      E5*        A5     B5
      y tu pollera también
    
      G5                   C5       D5
    2)Pronto aprovechemos la confusión
      G5        C5   D5
      y hagamos el amor
      G5                 C5   D5
      No, no insistas con el baño
      G5*                    A5*
      debajo del pupitre es mucho mejor
    
    
  • -------------------------------------------------------------------------
    
    Intro: E5-A5 B5(x4) + Riff 1 (x4)
    
      E5*             A5*    B5*
    1)Hay una bomba en el colegio
      E5*           A5*   B5*
      pronto, todos a correr
      E5*                       A5*         B5*
      El cuadro de Sarmiento tirado en el suelo
      E5*        A5     B5
      y tu pollera también
    
      G5                   C5       D5
    2)Pronto aprovechemos la confusión
      G5        C5   D5
      y hagamos el amor
      G5                 C5   D5
      No, no insistas con el baño
      G5*                    A5*
    
  •  MI5            LA5  SI5
    Hay una bomba en el colegio
     MI5        LA5    SI5
    pronto,todos a correr
    
    El cuadro de Sarmiento tirado en el suelo
    y tu pollera también
    
     SOL5                 DO5    RE5
    Pronto,aprovecharemos la confusión
    SOL5      DO5 RE5
    y hagamos el amor
    
    No,no insistas con el baño
    debajo del pupitre es mucho mejor
    
    Riff 1
    
    Botas Kickers patándome los huevos.....
    
    
  • intro por 2 veces
    
    4|----------55-7--777
    3|-7--777-77---------
    2|-------------------
    1|-------------------
    
    
    
    
    
    
    4|----------55-7--777
    3|-7--777-77---------  por 4 veces
    2|-------------------
    1|-------------------
    
    
    4|3-3-3-3-3-3-------3-3-3-3-3-3-------3-3-3-3-3-3-------333333-5555
    3|------------333-5-------------333-5-------------333-5------------
    2|-----------------------------------------------------------------
    1|-----------------------------------------------------------------
    
    
    repite como intro (2 veces)
    
    4|----------55-7--777
    3|-7--777-77---------  por 4 veces
    2|-------------------
    1|-------------------
    
    
    4|3-3-3-3-3-3-------3-3-3-3-3-3-------3-3-3-3-3-3-------333333-5555
    3|------------333-5-------------333-5-------------333-5------------
    2|-----------------------------------------------------------------
    1|-----------------------------------------------------------------
    
    
    4|----------55-7--777----------55-7--777---------33-5--555
    3|-7--
  • +
    ¡Colabora con nosotros!
    Envíanos tu versión de esta canción

Letra de Hay una bomba en el colegio
1)Hay una bomba en el colegio
pronto, todos a correr
El cuadro de Sarmiento tirado en el suelo
y tu pollera también
2)Pronto aprovechemos la confusión
y hagamos el amor
No, no insistas con el baño
debajo del pupitre es mucho mejor
1)Botas Kickers pateándome los huevos
y tus libros tirados en el suelo
En el patio la maestra grita
y nosotros dos cogemos
2)Nunca imaginaste estar así
todos afuera y nosotros aquí
El colegio va a explotar
y nosotros vamos a acabar
1)Falsa alarma en el colegio
pronto, todos a su lugar
la bomba era un invento,
pero nosotros explotamos igual
2)¡Qué vergüenza! ¡Qué ejemplo!
Nos atraparon en ese momento
qué dirán mamá y papá
mejor nos vamos de la ciudad
Días de escuela...
Días de escuela no, no, no, no
Días de escuela, uh yeah
Días de escuela...
Días de escuela, yeah yeah yeah yeah yeah
Días de escuela, yeah yeah yeah yeah yeah
Días de escuela, yeah yeah yeah yeah yeah
Días de escuela...
Riff 1:
Riff 2:




[Hay una bomba en el colegio chords][Hay una bomba en el colegio cifra]
© LaCuerda.net · aviso legal · privacidad · es · en · pt · contacto
DINAMICO