Acordes de Guitarra » A »Attaque 77 » El Callejero (Tab)

El Callejero
Attaque 77

Letras, Acordes y Tabs para Guitarra, Bajo y Ukulele

  • SOLm                        REm
    Era el callejero por derecho propio
    SOLm                  REm
    su filosofía de la libertad
                            LA
    fué ganar la suya sin atar a otros
                           REm
    y sobre los otros no pasar jamás
    
    Aunque fué de todos nunca tuvo un dueño
    que condicionara su razón de ser
    libre como el viento era nuestro perro
    nuestro y de la calle que lo vió nacer
    
    LAm                          MIm
    Era un callejero con el sol a cuestas
    LAm                        MIm
    fiel a su destino y a su parecer
                            SI
    sin tener horario para hacer la siesta
    
  •  SOLm                         REm
    era un kallejero por derecho propio
    SOLm                     REm
    su filosofia de la libertad
                                  LA
    fue ganar la suya sin atar a otro
                   MI              LA
    y sobre los otros no pasar jamas
    
    SOLm                            REm
    aunke fue de todos nunka tuvo un dueño
    SOLm                       REm
    ke kondicionara su razon de ser
                                    LA
    libre komo el viento era nuestro perro
                                    REm
    muestra de la kalle ke lo vio nacer.
    
    (sube 1 tono)
    
    
  • G|-------------------------------------------------------|
    D|---5-------5---8-------7-7-----------5---8--------2-3--|
    A|-------5-------------5-----8-----5--------------5------|
    E|-----------------------------3----------------3--------|
    
    G|--------------------------------------------------|
    D|---------7-----------9-9-9-9---9--7-7-5-5-3-3-2/3-|
    A|-5---8-------------7---------7--------------------|
    E|-----------5-5-5----------------------------------|
    
    G|-------------------------------------------------------|
    D|---5-------5---8-------7-7-----------5---8--------2-3--|
    A|-------5-------------5-----8-----5--------------5------|
    E|-----------------------------3----------------3--------|
    
    G|-----------------------------------------------------5-------|
    D|-------------------------------------------------------------|
    A|-5---8-------------7-7-7-7------8-8-7-5---5-3-3-5--5---5-6-7-|
    E|--------------5---5--------5--5---------8--------------------|
    
    G|------------------------
  • G|-------3---------------3-----------------
    D|------------77-3----------------------7--
    A|---5------5--------5--------5-7-8-5-8----
    E|-3---3-----------3---3----5--------------
                                      (0:24)
    G|----------------------------------
    D|--------9999---9-7-75-53-32-2-3-5-
    A|---7--7------7--------------------
    E|-5--------------------------------
    
    G|-----3---------------3----------------
    D|---5------77-3-----5---------------7--
    A|-5------5--------5-----0-5-7-8-5-8----
    E|---------------3----------------------
                                                (0:46)
    G|------------------------------------5-------
    D|--------------------------------------5-6-7-
    A|---44-77------88-77-5-3-5---33-5--5---------
    E|-5-------5--5-------------5-----------------
    
    G|--------------------------------------------
    D|---7-10----99-5------7-10----------------9--
    A|-7-------7---------7---------7-9-10-7-10----
    E|-----------------5---------7----------------
                                            (1
  • +
    ¡Colabora con nosotros!
    Envíanos tu versión de esta canción

Letra de El Callejero
Era el callejero por derecho propio
su filosofía de la libertad
fué ganar la suya sin atar a otros
y sobre los otros no pasar jamás
Aunque fué de todos nunca tuvo un dueño
que condicionara su razón de ser
libre como el viento era nuestro perro
nuestro y de la calle que lo vió nacer
Era un callejero con el sol a cuestas
fiel a su destino y a su parecer
sin tener horario para hacer la siesta
ni rendirle cuentas al amanecer
Era nuestro perro y era la ternura
que nos hace falta cada día más
era una metáfora de la aventura
que en el diccionario no se puede hallar
Era nuestro perro porque lo que amamos
lo consideramos nuestra propiedad
y era de los niños y del viejo Pablo
a quien rescataba de su soledad
Era un callejero y era el personaje
de la puerta abierta en cualquier lugar
era en nuestro barrio como del paisaje
el sereno, el gordo y todos los demás
**Este quiebre las notas de la guitarra 'Muted' son los mismos de
verso anterior**
*En los 2 últimos versos siguen las mismas notas
Era el callejero de las cosas buenas
y se fué con ellas cuando se marchó
se bebió de golpe todas las estrellas
se quedó dormido y ya no despertó
Nos dejó el espacio como testamento
lleno de nostalgia, lleno de emoción
vaga su recuerdo en mis sentimientos
para derramarlos en esta canción




[El Callejero chords][El Callejero cifra]
© LaCuerda.net · aviso legal · privacidad · es · en · pt · contacto