Acordes de Guitarra » A »Attaque 77 » Debilitándonos (Tab)

Debilitándonos
Attaque 77

Letras, Notas, Punteos, Tablaturas y Acordes de Guitarra (Tabs & Chords)

  • Letra y Acordes
    Cmaj7:
    
    e-||---0----|
    B-||---0----|
    G-||---0----|
    D-||---2----|
    A-||---3----|
    E-||--------|
    
    Dsus2:
    
    e-||---0----|
    B-||---3----|
    G-||---2----|
    D-||---0----|
    A-||--------|
    E-||--------|
    
    Intro:
    
    
  • Tablatura
             C               F              D             G
    e|-----------------|-------------|-------------|-------------|
    B|-----------------|-8--6--5-----|-8--6--5-----|-8--6--5-----|
    G|-4h5-5-4h5-5-4h5-|---5--5--7-5-|---5--5--7-5-|---5--5--7-5-|
    D|-----------------|-------------|-------------|-------------|
    A|-----------------|-------------|-------------|-------------|
    E|-----------------|-------------|-------------|-------------|
    
             C               F              D             G
    e|-----------------|-------------|-------------|-------------|
    B|-----------------|-8--6--5-----|-8--6--5-----|-8--6--5-----|
    G|-4h5-5-4h5-5-4h5-|---5--5--7-5-|---5--5--7-5-|---5--5--7-5-|
    D|-----------------|-------------|-------------|-------------|
    A|-----------------|-------------|-------------|-------------|
    E|-----------------|-------------|-------------|-------------|
    
    G     Em        G     Em      C      Em      D           C          D
    Tu temor mayor tuve que llorar y me consumí absorvido en tu emoción.
    G     Em        G     Em    C    Em    D             C           D
    Tuve lo mejor, tuve lo peor y me consumí absorvido en mi emoción.
    
  • +
    ¡Colabora con nosotros!
    Envíanos tu versión de esta canción

Letra de Debilitándonos
Verso (también puede ser tocado en quintas):
Tu temor mayor tuve que llorar y me consumí
absorbido en tu emoción.
Tuve lo mejor, tuve lo peor y me consumí
absorbido en mi emoción.
Todo termino debilitándonos.
Tuve que aceptar mi inseguridad y me confundí
absorbido en mi emoción.
Si me nubla el sol tu recuerdo,
hoy digo que al final estoy libre en donde estoy.
Todo termino debilitándonos.
Final con acordes de la introducción: C5 F5 D5 G5 (x8)

Videos de Debilitándonos
[ver más videos]

[ver todas las canciones]


© LaCuerda.net · Aviso Legal · Privacidad