Acordes de Guitarra » A »Attaque 77 » Angeles Caídos (Tab)

Angeles Caídos
Attaque 77

Letras, Acordes y Tabs para Guitarra, Bajo y Ukulele

  • [intro] G#m  B E  F# (x2) + punteo (lo hace solo la primera vez)
    
    [punteo del intro]
    g|--6b7b6-4----------
    D|----------6--------
    
    [solo]
       G#m               E         F#                D#
    e|------------------------------------------------------------------------------------
    B|-9-9-9-9-8/9-9-9-9-8/9-9-9-9-8/9-9-9-9-8/9-9-9-8/9-9-9-9-9/11b-11b-11b-11b----------
    G|------------------------------------------------------------------------------------
    D|------------------------------------------------------------------------------------
    A|------------------------------------------------------------------------------------
    E|------------------------------------------------------------------------------------
    
       G#m               E                    F#       D#
    e|------------------------------------------------------------------------------------
    B|------------------------------------------------------------------------------------
    G|-7--5--4--5----4-5-7/9---7---5---4---5--4--------9/11b-11b-11b-11b-11b-11b-11b-11b--
    D|------------------------------------------------------------------------------------
    
  •         A F G
    
    A                     G
    Algo oculto estalló Adentro de tu corazón
        F                    D
    Tenías el mundo a tus pies ¿y ahora qué?
    
    (A C)x3
    
    D                           SIb
    Quieres terminar con todo Pero hay algo que te condena
        C            E
    La tentación está en tu frente
    A          F               G             E
    La gloria y el poder Se transformó en tu prisión...
    A          F       G                E
    Angeles, angeles, angeles Angeles caídos
    
    Intro
    
    
  •    G#m               E
    e|---------------------------------------
    B|-9-9-9-9-8/9-9-9-9-8/9-9-9-9-8/9-9-9-9-
    G|---------------------------------------
    D|---------------------------------------
    A|---------------------------------------
    E|---------------------------------------
    
       F#                D#
    e|-----------------------------------------------------
    B|-8/9-9-9-8/9-9-9-9-9/11b-11b-11b-11b-11b-11b-11b-11b-
    G|-----------------------------------------------------
    D|-----------------------------------------------------
    A|-----------------------------------------------------
    E|-----------------------------------------------------
    
       G#m               E        
    e|---------------------------------------
    B|---------------------------------------
    G|-7--5--4--5----4-5-5/9---7---5---4---5-
    
  • Y ahora que!            Quieres..
    G||-------------|----------------|-----------|------------------|
    D||-------------|----------------|-----------|------------------|
    A||-----2----2--|-----2-44444444-|-----------|-22222222-66666666|
    E||--444--444---|--444-----------|--55555555-|------------------|
    
    La gloria…
    ----------------------|----------------------|
    ----------------------|----------------------|
    ----------------------|------------66666666--|
    --44444444--00000000--|--22222222------------|
    
    Angeles…
    ----------------------|----------------------|
    ----------------------|----------------------|
    ----------------------|------------66666666--|
    --44444444--00000000--|--22222222------------|
    
    Guitarra
    ----------------------|----------------------|
    ----------------------|----------------------|
    --------22------------|--------22------------|
    --444444---0000-2222--|--444444---0000-2222--|
    
    A quien estas…
    ----------------------|----------------------|
    ----------------------|-----------------
  • +
    ¡Colabora con nosotros!
    Envíanos tu versión de esta canción

Letra de Angeles Caídos
Algo oculto estalló Adentro de tu corazón
Tenías el mundo a tus pies ¿y ahora qué?
Quieres terminar con todo Pero hay algo que te condena
La tentación está en tu frente
La gloria y el poder Se transformó en tu prisión...
Angeles, angeles, angeles Angeles caídos
A quién estás ayudando A quién estás encubriendo
Cuántas vidas se perdieron Yo no lo sé...
Quieres terminar con todo Pero hay algo que te controla
La corrupción está en tu mente.
La gloria y el poder Se transformó en tu prisión...
Angeles, angeles, angeles Angeles caídos
A quién estás ayudando A quién estás encubriendo
Cuántas vidas se perdieron Yo no lo sé...
Quieres terminar con todo Pero hay algo que te controla
La corrupción está en tu mente.
La gloria y el poder Se transformó en tu prisión...
Angeles, angeles, angeles Angeles caídos
Y es que La gloria y el poder Se transformó en tu prisión...
Angeles, angeles, angeles Angeles caídos
No... angeles caidos NO!
Cualquier duda o comentario: virus_nadaescomoes@hotmail.com




[Angeles Caídos chords][Angeles Caídos cifra]
© LaCuerda.net · aviso legal · privacidad · es · en · pt · contacto
DINAMICO