Acordes de Guitarra » V »La Vela Puerca » Va a escampar (Tab)

Va a escampar
La Vela Puerca

Letras, Acordes y Tabs para Guitarra, Bajo y Ukulele

  • Intro: F - Am x2
    
    F                  Am
    Hoy asume lo que venga
    F                    Am
    Sea para bien, o todo mal
    F                      Am
    Y aunque pierda lo que tenga,
    F                       Am
    Se va a morder para aguantar.
    
    F                       Am
    Hoy, que claro ve las cosas
    F                           Am
    Que ayer no vio, ni va a exigir,
    F                  Am
    Sobre su pena se posa
    F                       Am
    Quiere entender para seguir.
    
    
  •        Ab = Abajo
           Ar = Arriba
    
    Intro: (F Am) x2
    
    F                 Am              F           Am
    Hoy asume lo que venga, sea para bien, o todo mal,
    F                        Am               F            Am
    y aunque pierda lo que tenga, se va a morder para aguantar.
    F                     Am                 F              Am
    Hoy que claro ve las cosas, que ayer no vio, ni va a exigir,
    F                 Am                F          Am
    sobre su pena se posa, quiere entender para seguir.
    
    F                G                    C        G/B       F
    Llega la batalla, y contra el estalla, algún día va a escampar,
    F                   G                    C     G/B         F
    y como sale de ésta, quiere la respuesta, sabe que no es escampar.
    
    C      G              F  G         C          G          F  G
    
  • FA              LAm
     Hoy asume lo que venga
             FA             LAm
     sea para bien, o todo mal.
    FA                  LAm
     y aunque pierda lo que tenga
             FA              LAm
     se va a morder para aguantar
    
    parte 1
    Hoy que claro ve las cosas
    que ayer no vio, ni va a exigir
    Sobre su pena se posa
    quiere entender para seguir
    
    Puente
    FA
     Llega la batalla
    SOL
     y contra él estalla
    
  • e----------7-----8----8]7------------------------------------------
    B---------------------------10-8-6--8br-10br----8]6----------------
    G-------5/7---7/9-----------------------------------9-7-5-4-2-4-5-7
    D------------------------------------------------------------------
    
    e--7-5------------------------------------------------------
    B------5----------------------------------------------------
    G--------5-7v---7/9----4/5------5--7b]5--7b-5v--------------
    D------------------9v------7--7-----------------------------
    
    5/7 slide deslizar desde 5 al 7
    
    
    8]7 pull on ligar 8 sosteniendo en 7
    
    8br bend a relase estirar y bajar un tono
    
    7v vibrato
    
    
    
  • Modificaciones por Roy Jesser. Espero que les guste, es una versión muy fácil!
    
    1--------------------------------------------------------------------------
    2-----------------13---13-12-----------------------------------------------
    3-------14-12----------------14-12-10---12/14-12--14/16-14-----12-10-9-----
    4--12/15--------14---14----------------------------------------------------
    5--------------------------------------------------------------------------
    6--------------------------------------------------------------------------
    
    
    1--------------------------------------------------------------------------
    2----------------12-10-----------------------------------------------------
    3----------------------9--------12-10--------------------------------------
    4-12-10-9---9-10---------10-12--------9-----10-----10-12-10-12-10----------
    5---------12-----------------------------------12-------------
  • +
    ¡Colabora con nosotros!
    Envíanos tu versión de esta canción

Letra de Va a escampar
Hoy asume lo que venga
Sea para bien, o todo mal
Y aunque pierda lo que tenga,
Se va a morder para aguantar.
Hoy, que claro ve las cosas
Que ayer no vio, ni va a exigir,
Sobre su pena se posa
Quiere entender para seguir.
Llega la batalla y contra el estalla
Algún día va a escampar
Y, como sale de esta quiere la respuesta,
Sabe que no es escapar
Hoy que raro que lo miran
Se pone en pie y quiere hablar,
Y a su boca se le olvida
Lo que una vez quiso explicar.
Su paciencia va a montar
Todo un circo para verlo desfilar,
Al dolor que supo ser
Y al que ahora ya no quiere ver, volver
Hoy se siente satisfecho
Aunque aquel rol no exista más
Para vida con su pecho
Y su canción vuelve a sonar
Hoy recibe los aplausos
Supo ser sal y también, miel
Y conecta con sus pasos
Que resbalar no cae bien
Termino su guerra
Los pies en la tierra
Y su mano a un corazón:
Su pensar tranquilo,
Su pena, un olvido
Y su alma, una pasión.
Hoy asume lo que venga
Sea para bien, o todo mal,
Y aunque pierda lo que tenga,
Se va a morder para aguantar.
Su paciencia va a montar
Todo un circo para verlo desfilar,
Al dolor que supo ser,
Y al que ahora ya no quiere ver volver.
Se refugia en un farol
Y entre dos flores
Que siempre apuntan al sol.
Así cruza su pared, me sonríe
Y rompe con su propia red
Llega la batalla y contra el estalla
Algún día va a escampar
Y, como sale de esta quiere la respuesta,
Sabe que no es escapar
Su paciencia va a montar
Todo un circo para verlo desfilar,
Al dolor que supo ser,
Y al que ahora ya no quiere ver volver.
Se refugia en un farol
Y entre dos flores
Que siempre apuntan al sol.
Así cruza su pared, me sonríe
Y rompe con su propia red




[Va a escampar chords][Va a escampar cifra]
© LaCuerda.net · aviso legal · privacidad · es · en · pt · contacto