Acordes de Guitarra » V »La Vela Puerca » El Profeta (Tab)

El Profeta
La Vela Puerca

Letras, Acordes y Tabs para Guitarra, Bajo y Ukulele

  • C
    ES UNA HISTORIA SIN PRINCIPIO NI FIN
    F          G       C
    DE ESAS QUE VES POR AHÍ
    LO ÚNICO RARO FUE QUE NO IMAGINÓ
    LO QUE PODÍA VENIR.
    
    Am          G             C
    SE FUE DEBILITANDO EN UN DESCONTROL
    Am            G             C
    PENSÓ QUE SER UN HÉROE ERA ASÍ
    Am            G             C
    PELEÓ CON UÑAS, DIENTES Y EL CORAZÓN,
    F        G       C
    PERO NUNCA PUDO SALIR.
    
    YA NO BASTABA CON DEJARSE LLEVAR,
    AHORA HABÍA QUE SEGUIR,
    PONER CABEZA Y AGUANTAR EL TIRÓN,
    Y CON LA VIDA ES ASÍ.
    
  • Intro:
    
    1-0-0-0-0-----0-0------1-1-0----------/-----0-0-----------0---/
    2---------3-1-----3-1---------3-1-0-1-/-0-------3-1-0-1-3-----/
    3-------------------------------------/---2-------------------/
    4-------------------------------------/-----------------------/
    5-------------------------------------/-----------------------/
    6-------------------------------------/-----------------------/
    
    1-----0-0---------/-----0-0-----------0-/-1-1-0-0-------------/
    2-0-------3-1-0-1-/-0-------3-1-0-1-3---/---------3-1-0-1-----/
    3---2-------------/---2-----------------/---------------------/
    4-----------------/---------------------/---------------------/
    
    Matias Onandi:
    por cualquier consulta mandenmen un E-Mail a matdanubio@hotmail.com
  • Bueno aca les dejo el punteo que faltaba de este temazo!!
    Vamos La Vela De Mi Corazon!!!
    sergioceballes@hotmail.com
    
     1:01 :
    
           C5                     F5     G5    C5
    3--------------------------------------------------------------
    4-----3-3-2-0------3-3-2-0-------------------------------------
    5-3-----------3------------------------2-5-2-3-----------------
    6---3-----------3------------1---1-1-3-------------------------
    
           C5                             F5     G5    C5
    3-----------2-0----------2-0-----------------------------------
    4--2-3--2-3------3-3-2-3-----3-3-2-0---------------------------
    5---------------------------------------------2-5-2-3----3-2-0-
    6------------------------------------1--1-1-3------------------
  • Armonica en C
    
    Intro:
    5(5)54
    65(5)5(4)4…(4)4…
    65(5)5(4)4…(4)4
    
    Estrofas:
    55555(4)455(4)4
    (5)(5)5(4)4(3)4
    55555(4)455(4)4
    (5)(5)5(4)4(3)4
    
    (3)(--3)(--3)55(4)4(3)4(4)5
    43355(4)4(3)4
    (3)(--3)(--3)55(4)4(3)4(4)5
    (5)(5)(5)5(4)4(3)4
    
    55555(4)455(4)4
    (5)(5)5(4)4(3)4
    55555(4)455(4)4
    (5)(5)5(4)4(3)4
    
    (3)(--3)(--3)55(4)4(3)4(4)5
    43355(4)4(3)4
    (3)(--3)(--3)55(4)4(3)4(4)5
    (5)(5)(5)5(4)4(3)4
    
    [Puente de guitarra]
    
    Estrofa:
    (3)(--3)(--3)55(4)4(3)4(4)5
    43355(4)4(3)4
    (3)(--3)(--3)55(4)4(3)4(4)5
    (5)(5)(5)5(4)4(3)4
    
    León Gieco y su magia con la armónica. El más indica qe hay un acorde
    entre la celda que hace la nota (puesta primera) más (+)
    la que acompaña (puesta segunda).
    Si están entre paréntesis hay qe aspirar las celdas, si no y que soplarlas.
    También Gieco mete trémolos en algunas partes:
    4+3<7+6…(6+5) 6+5 (6+5) 6+5 (5+4) 5+4. 4+3…(4+3) 4+3 (4+3) 4+3
    4+3<7+6…(6+5) 6+5 (6+5) 6+5 (5+4) 5+4. 4+3…(4+3) 4+3 (4+3) 4+3
    
    Vientos Veleros:
    5…555(4)45(4)455(4)4
    4(4)5(5)(5)5(4)4(3)4
    55(
  • Armonica en C (DO)
    Las notas que no tienen espacio se tocan juntas
    la b despus de una nota significa un bending
    las notas entre parentesis son aspiradas y las ke no sopladas
    Esta parte va en el minuto : 1:25
    
    76 (56) 56 (56) 56, (56)b 56 4 (4)b (4)b 5
    
    6 7 (56) 56 (56) 56, (56)b 5 4 (4)b (4)b 4
    
    5 (4) 4 5 (4) 4 5 5 (4) 4
    
    (4) 4 (4) 5 5 (5) (5) (4) 4 4
    
    5 5 (4) 5
    
    (4) 5 (4) 5 (4) 5 (4) 5
    
    3 3 3 (3)(3)(3) 4 4 4
    
    Bueno espero que les guste y sino mandenme un mail u algo...
  • +
    ¡Colabora con nosotros!
    Envíanos tu versión de esta canción

Letra de El Profeta
ES UNA HISTORIA SIN PRINCIPIO NI FIN
DE ESAS QUE VES POR AHÍ
LO ÚNICO RARO FUE QUE NO IMAGINÓ
LO QUE PODÍA VENIR.
SE FUE DEBILITANDO EN UN DESCONTROL
PENSÓ QUE SER UN HÉROE ERA ASÍ
PELEÓ CON UÑAS, DIENTES Y EL CORAZÓN,
PERO NUNCA PUDO SALIR.
YA NO BASTABA CON DEJARSE LLEVAR,
AHORA HABÍA QUE SEGUIR,
PONER CABEZA Y AGUANTAR EL TIRÓN,
Y CON LA VIDA ES ASÍ.
HABLABA DE LO BUENO QUE PUEDE SER,
QUERERSE Y NO TENER RELIGIÓN,
DEJABA ALGUNAS MENTES SIN CONVENCER,
SÓLO PA` SENTIRSE MEJOR. (BIS)
SE FUE DEBILITANDO EN UN DESCONTROL
PENSÓ QUE SER UN HÉROE ERA ASÍ
PELEÓ CON UÑAS, DIENTES Y EL CORAZÓN,
PERO NUNCA PUDO SALIR.
PERO A ESTE TIPO LE GUSTABA ESCUCHAR,
Y MUCHA GENTE LE HABLÓ,
MUCHAS HISTORIAS TUVO QUE COMPARTIR,
PARA EXPLICAR SU RAZÓN.
HAY QUE TOMARSE UN TIEMPO PA`COMPRENDER,
QUE SOLAMENTE SOS LO QUE SOS,
DE AHÍ A TODO LO QUE TU QUIERAS SER,
ESO YA DEPENDE DE VOS,ESO YA DEPENDE DE VOS,
ESO YA DEPENDE DE VOS,ESO YA DEPENDE DE.........VOS!!!!
Lea Dati
ahi cambie una cosita nomasss pero estaba bastante bienn
me gusto mas como quedo ahora...pero va a criterio de cada uno
yo tambien toco de oido asi q seguramente me equivocare....
nada mas saludos!!!!!y aguante parana!!!!!!!!!




[El Profeta chords][El Profeta cifra]
© LaCuerda.net · aviso legal · privacidad · es · en · pt · contacto