Acordes de Guitarra » V »La Vela Puerca » Mi semilla (Tab)

Mi semilla
La Vela Puerca

Letras, Acordes y Tabs para Guitarra, Bajo y Ukulele

  • (A)  Violín:  E)-0--2-4-2--5-4-0--0-2
                  B)---------------------
    
    Estrofa
    
          1:12 (A)
    
    Estribillo
    
          1:33
     Solo de      e)-7-9-7--7-9-7--7-9-7---------7-9-7| x2
     Violín:      B)---------------------10-9-10------|
    
    e)-7-7-9-7-12-11-9-7-9-7-7-------7-7-9-7--|x2
    B)-------------------------10-10----------|
    
    
          1:51
    e)------------|------------------------------7-9-7-|
    B)-10-10-10-9-|-----------7-9-10-9-----------------| x2
    
  •     E           F#
    e ----------------------------
    B --------0-----------0-------
    G ------6---6-------8---8-----   x 4 en la intro
    D ----7-------7---9-------9---
    A --7-----------9-------------
    E ----------------------------
    
    
    Así es la introducción y luego sigue igual en la parte cantada
    
    Hasta el estribillo que es así:
    
        E            F#           G#           F#
    e -------------------------------------------------------
    B --------0------------0------------0------------0-------
    G ------1---1--------2---2--------4---4--------2---2-----
    D ----2-------2----2-------2----4-------4----2-------2---
    A -------------------------------------------------------
    E --0------------2------------4------------2-------------
    
  •     A           B
    e ----------------------------
    B ----------------------------
    G ------6---6-------8---8-----   x 3 en la intro +
    D ----7---7---7---9---9---9---
    A --7-----------9-------------
    E ----------------------------
    
        A           B
    e --------------------0-----
    B --------------------------
    G ------6---6-------8-------
    D ----7---7---7---9---------
    A --7-----------9-----------
    E --------------------------
    
    OPCIÓN 2:
    
        A           B
    e ----------------------------
    
  • LA VELA PUERCA:
    MI SEMILLA.  (BAJO ELECTRICO)
    
    EL BAJO ENTRA EN EL'CORO':(VOY A CAMBIAR DE RECETA POR
    ESTA VEZ....)
    Y HACE ESTO:
    G------------ X4
    D------------
    A------------
    E-0--2--4--5-
     MI F#SOL# LA
    
    AHORA VIENE EL ARPEGIO SOLO DE GUITARRA Y ARMONICA,
    Y DESPUES DE ELLO ENTRA EL BAJO.
    Y ESTA PARTE ES EL PUENTE:
    PUENTE:
    G--------------------------------------
    D--------------------------------------
    A--------------------------------------
    E-5-7-5-7-5-7-5-7-5-4-7-5-7-5-4-7-5-7--
      LA    SI
    
    CORO: X4
    
    AHORA VIENE EL ARPEGIO DE GUITARRA
    AHI EL BAJO HACE ESTO:
    G------------- X8
    D-------------
    A-------------
    E-0--2--4--5--          Y TERMINA ASI:E-(0)-//
     MI F#SOL# LA
    
    BUNO ESTO FUE TODO, ES MUY SENCILLA,ESPERO QUE LES 
    SIRVA DE ALGO.
    
    AGUANTE LA VELA PUERCA Y DOS MINUTOS!!!...
    
    Y VIVA PERU!!!
    
    CHAU........................................
    ............................................
  • 6 (6) 6  6 (6) 6
    
    6 (6) 6 (5) 5 (5) 6 (6) 6
    
    6 (6) 6  6 (6) 6
    
    6 (6) 6 (5) 5 (5) 6 (6) 6
    
    6 6 (6) 6 7 (7) (6) 6 (5) 6 (5) 5 (5) (6) 6
    
    6 6 (6) 6 7 (7) (6) 6 (5) 6 (5) 5 (5) (6) 6
    
    (5) (5) (5) 5
    
    4 4 4 4 (4) 5 (5) 5
    
    4 4 4 6 6 (6) 6
    
    4 4 4 4 (4) 5 (5) 5
    
    4 4 4 6 6 (6) 6
    
    (6) (7) 7
    
    7 7 (7) (7) (6) 6 (6) 5 (5) 6
    
    6 (6) 6 (5) (5) 5 (5) 5 (4) 5 (4)   4
  • +
    ¡Colabora con nosotros!
    Envíanos tu versión de esta canción

Letra de Mi semilla
Estrofa
1:12 (A)
Estribillo
1:33
1:51
2:01
Estribillo
2:31
3:07
ES TODO LO QUE HACE EL VIOLIN EN EL TEMA PERO PARA LA VIOLA...
MUCHAS GRACIAS A TODA LA GENTE DE BUEN DIA, (CHIPPY AGUS LUKS MATI
BRUNITO PABLO Y PAU IVA AGUS FLOR…) SE LOS QUIERE MUCHO...
NADA MAS, CUALQUIER DUDA O CORRECCION MANDEN UN MAIL gamba_23@hotmail.com
SUERTE... Y AGUANTE LA VELA EL PITY Y TODO EL ROCK AND ROLL...




[Mi semilla chords][Mi semilla cifra]
© LaCuerda.net · aviso legal · privacidad · es · en · pt · contacto