Acordes de Guitarra » V »La Vela Puerca » Zafar (Tab)

Zafar
La Vela Puerca

Letras, Acordes y Tabs para Guitarra, Bajo y Ukulele

  •       Am           Am         Dm           G
    
    E|-----0-----0-----0-----0-----1-----1-----3-----3--
    B|-----1-----1-----1-----1-----3-----3-----0-----0--
    G|--------------------------------------------------
    D|--------2-----------2-----------0-----------0-----
    A|--0-----------0-----------0-----------2-----------
    E|--------------------------------------------------
    
    
    Am                     Dm               G
     Soy de la ciudad con todo lo que ves
    con su ruido, con su gente consume vejez
    y no puedo evitar, el humo que entra hoy
    pero igual sigo creciendo soy otro carbón
    no voy a imaginar, la pena en los demás
    compro aire y si es puro pago mucho más
    no voy a tolerar, que ya no tengas fe
    que se bajen los brazos que no haya lucidez.
    
    
  • Intro: G Am Dm G
    
    Am                     Dm               G
     Soy de la ciudad con todo lo que ves 
    con su ruido, con su gente consume vejez 
    y no puedo evitar, el humo que entra hoy 
    pero igual sigo creciendo soy otro carbón 
    no voy a imaginar, la pena en los demás 
    compro aire y si es puro pago mucho mas 
    no voy a tolerar, que ya no tengas fe 
    que se bajen los brazos que no haya lucidez. 
                 Am
    Me voy, 
    Dm                G
    volando por ahí 
                 Am
    y estoy, 
    Dm                G
    convencido de ir 
    me voy, 
    
  • INTRO    Am
    1º----0-----0-----------|
    2º----1-----1-----------|
    3º----------------------|
    4º-------2--------------|
    5º-0--------------------|
    6º----------------------|
    1) Tocar 6 veces
         Dm        G
    ----1-----1-----3-----3-------------|
    ----3-----3-----3-----3-------------|
    ------------------------------------|
    -0-----0----------------------------|
    -------------------2----------------|
    -------------3----------------------|
    2)1 vez
           Am          Am            Dm          G
    ----0-----0------0-----0------1-----1-----3-----3--
    ----1-----1------1-----1------3-----3-----3-----3--
    ---------------------------------------------------
    
  • B/----------------------------0-1-0-1-3--3/5---3--5-3-1-0------
    G/--2---2-4-5-4---2-0-2-----2------------------------------2---
    D/----------------------2------------------------------------2-
    A/-------------------------------------------------------------
    E/-------------------------------------------------------------
    
    /-------
    /-------
    /-------
    /--0--5-
    /-------
    /-------
    
    
    Soy de la ciudad con todo lo que ves:
    con su ruido, con su gente, consume vejez;
    y no puedo evitar el humo que entra hoy,
    pero igual sigo creciendo, soy otro carbón,
    No voy a imaginar la pena en los demás;
    compro aire y, si es puro, pago mucho más;
    
  • (la primera estrofa y el primer estribillo no llevan bajo)
    
    (segunda estrofa)
    G-----------------------------------------------------------------|
    D-7-------7---------------5-----5-7-------7---------------5---5---|
    A-------------7---5-----5---------------------7---5---5-----------|
    E-----------------------------------------------------------------|
    
    G-----------------------------------------------------------------|
    D-7-------7---------------5-----5-7-------7---------------5---5---|
    A-------------7---5-----5---------------------7---5---5-----------|
    E-----------------------------------------------------------------|
    
    G-----------------------------------------------------------------|
    D-7-------7---------------5-----5-7-------7---------------5---5---|
    A-------------7---5-----5---------------------7---5---5-----------|
    E-----------------------------------------------------------------|
    
    G-----------------------------------------------------------------|
    D-7-------7---------------5-----5-7
  • son las intervenciones de violin para armonica en DO
    
    
    la primera en la intro:
    
    (6)(6)
    (6)(7)7(7)(6)6(6)5
    (6)(7)7(7)7(8)8
    (8) 8(8)7(7)(6)5
    56
    
    la segunda en el solo:
    
    8…(8)7(7)7(7)65
    5(5)5(6)7
    7(8)7 (7)(9)8(8)8
    (8)89 / (9)8(8) (9)8
    7(7)7 (10)9(8)8
    8(8)7(7)(6)(8) 7(7)(6)67(7)65
    (5)5(4)3(--3)
    (5)5(4)(5)6
    5(5)6(6)7(7)
    6(6)(7)78(8)
    (7)7(8)89(9)8(10)
    
    (--3)=aspirar la celda tres bajando 2 semitonos
  • +
    ¡Colabora con nosotros!
    Envíanos tu versión de esta canción
  • Tutorial
    HD
    Canción fácil en Guitarra - Zafar de la Vela Puerca
    6:19
  • Tutorial
    como tocar zafar La Vela Puerca
    5:03
  • Tutorial
    la velapuerca zafar como tocar en la guitarra
    1:33

Letra de Zafar
Soy de la ciudad con todo lo que ves
con su ruido, con su gente consume vejez
y no puedo evitar, el humo que entra hoy
pero igual sigo creciendo soy otro carbón
no voy a imaginar, la pena en los demás
compro aire y si es puro pago mucho más
no voy a tolerar, que ya no tengas fe
que se bajen los brazos que no haya lucidez.
Me voy, volando por ahí
y estoy, convencido de ir
me voy, silbando y sin rencor
y estoy, zafando del olor
-Aca empieza ritmo ska-
Me encontré con la gente, que sabe valorar
que de turista en la capital han sabido vagar
y no encarado al fin, la cruda realidad
de respirar hollín, de llorar alquitrán
y empiezo a envejecer, sudando mi verdad
criado pa toser con mucha variedad
y a donde ir a parar cargando con mi olor
deberíamos andar desnudos pa sentirnos mejor
Me voy, volando por ahí
y estoy, convencido de ir
me voy, silbando y sin rencor
y estoy, zafando del olor
-entra el violin-
(Y FIN...) alejandroalvi@hotmail.com




[Zafar chords][Zafar cifra]
© LaCuerda.net · aviso legal · privacidad · es · en · pt · contacto