Acordes de Guitarra » V »V8 » Angeles de las Tinieblas (Tab)

Angeles de las Tinieblas
V8

  • Tablatura
    e|--------------------------+---------------------------+-------------------------->
    B|--------------------------+---------------------------+-------------------------->
    G|--------------------------+---------------------------+-------------------------->
    D|------6------------6---7--+------6------------/7-6----+------6------------6---7-->
    A|--7-7---5--5-5-7-7---7----+--7-7---5--5-5-7-7------5--+--7-7---5--5-5-7-7---7---->
    E|--------------------------+---------------------------+-------------------------->
    
    e|---------------------------|
    B|---------------------------|
    G|---------------------------|
    D|------6------------/7-6----|
    A|--7-7---5--5-5-7-7------5--|
    E|---------------------------|
    
    
    E5
    Engendros de sangre,
       G5      A5#
    Vienen a mi mente,
    E5
    
  • Tablatura
    Intro:
    
    e|------------------------------|-|----------------------------|-|
    B|------------------------------|-|----------------------------|-|
    G|------------------------------|X|----------------------------|X|
    D|------6v-------------6v----7v-|4|------6v------------7v--6---|2|
    A|----7-----5-5-5---7------7----|-|----7-----5-5-5---7-------5-|-|
    E|-0--------------0-------------|-|-0--------------0-----------|-|
    
    Solo:
    
    --------------------------------|-|----------------------------------
    --------------------------------|-|----------------------------------
    --------------------------------|X|----------------------------------
    -9--9-9--9---------9--9-9--9----|3|-9--9-9--9---------9---5--7---4-5-
    -7--7-7--7-8-7-----7--7-7--7-8v-|-|-7--7-7--7-8-7-----7---3--5-------
    ---------------10---------------|-|---------------10-----------------
    
    ------------------------------|-|----------------------------------
    ------------------------------|-|-----------------------------12s0-
    -------------------------
  • Tab p/Bajo
    G|--------------------------------------------------4-4--4---------
    D|-----------------------------------------------------------------
    A|-7----------10\-5-----------9\-4------------2------------------7-
    E|-----------------------------------------------------------------
    
                                                              \
    G|-----------------------------------------------------   |
    D|---6-------------6----7-------6-------------7--6-----   |
    A|-7----5-5-5-0--7----5----0--7----5-5-5-0--7------7--0   |
    E|-----------------------------------------------------   |
                                                              | Parte
    G|-----------------------------------------------------   |   A
    D|---6-------------6----7-------6-------------7--6-----   |
    A|-7----5-5-5-0--7----5----0--7----5-5-5-0--7------7---   |
    E|-----------------------------------------------------   |
                                                              /
    
             (4 veces)                                      
  • +
    ¡Colabora con nosotros!
    Envíanos tu versión de esta canción

Letra de Angeles de las Tinieblas
Engendros de sangre,
Vienen a mi mente,
Figuras extrañas,
Sin rostros ni vientres
Su intención es simple.
Tú, has de comprenderla.
Sus tibios cerebros
No son de esta tierra.
Angeles negros y una espesa niebla
Me abraza y me lleva.
Voy contemplando
Esos rostros oscuros
Que se acercan a mí.
(*1)
Mil cráneos sedientos,
Brillan en la noche
Dos hachas estallan
Sobre un ataúd gris.
Un niño maldito
Mira complaciente, la cruz que
Marcó su dejar de existir.
Angeles negros y una espesa niebla,
Me abraza y me lleva.
Voy contemplando esos rostros
Oscuros que se acercan a mí.
x3 x4

Engendros de sangre,
Vienen a mi mente,
Figuras extrañas,
Sin rostros ni vientres
Su intención es simple.
Tú, has de comprenderla.
Sus tibios cerebros
No son de esta tierra.
Angeles negros y una espesa niebla
Me abraza y me lleva.
Voy contemplando
Esos rostros oscuros
Que se acercan a mí.
FINAL:



© LaCuerda.net · aviso legal · privacidad · contacto