Acordes de Guitarra » V »V8 » Ciega ambición (Tab)

Ciega ambición
V8

  • Letra y Acordes
    F#5 / G5 / D5 / E5x3 F#5 / G5 / D5 / E5 G5 / A5 / E5 / G5 x3
    F#5 / G5 / D5 / E5 // F#5 / G5 / D5 / C5 / *1 
    / C5 / E5 / G5 / D5 / C5 / *1 / C5 / B5
    
    F#5 / G5 / D5 / E5                 F#5 / G5 / D5 / E5
                     EN GRISES CALLES INFECTADAS DE TENSION
    F#5 / G5 / D5 / E5               F#5 / G5 / D5 / E5
                     SUCIAS PAREDES DEJAN VER LA DESUNION
    G5 / A5 / E5 / G5                    G5 / A5 / E5 / G5
                     TODO ESTA PROHIBIDO, SALVO SER UNO MAS;
    G5 / A5 / E5 / G5                   F#5 / G5 / D5 / E5
                     DE LOS QUE OLVIDAN Y PIDEN SEGURIDAD.
    
    F#5 / G5 / D5 / C5           E5      D5
                     SUICIDANDO MIS HORAS ESTOY,
                      C5           E5       G5 / D5
                     MIENTRAS INSANOS SIGAN VIVIENDO,
                      C5         E5   D5
                     ENCADENADOS AL DESAMOR
                      B5 
    
  • Tablatura
    e|---------------------------------------------------------------------
    B|---------------------------------------------------------------------
    G|---------------------------------------------------------------------
    D|--11-12-7-9-----------9---11-12-7-9-----------9---11-12-7-9-----------9---11-12-7-9--|
    A|--9--10-5-7-7-7-7-7-7-7---9--10-5-7-7-7-7-7-7-7---9--10-5-7-7-7-7-7-7-7---9--10-5-7--|
    E|---------------------------------------------------------------------
    
    E5 D5
    e|------------------------------------------------------------------+--
    B|------------------------------------------------------------------+--
    G|------------------------------------------------------------------+--
    D|--------------------------------11-12-7-9-----------9--11-12-7-5--+-9-9^7--5-7--5-4aa--|
    A|--5-7---5---5-7---5---5-7---5---9--10-5-7-7-7-7-7-7-7--9--10-5-3--+--
    E|--3-5-0-3---3-5-0-3---3-5-0-3-------------------------------------+--
    
    E5 D5
    e|--------------------+---------------------+-------------------------
    B|--------------------+---------------------+-------------------------
    G|--------------------+---------------------+-------------------------
    D|-5--9--12--7-7---5--+--9-9^7--5-7--5-4aa--+--5-4-4--4-4-4--4-4-4--4-4
    
  • Tab p/Bajo
          (3 veces)                                               \
    G|-----------------|-------------                             |
    D|-4-5-------------|-4-5---------                             |
    A|-----5-7--7-7777-|-----5-7-----                             |
    E|-----------------|-------------                             |
                                                                  |
          (3 veces)                                               |
    G|-----------------|------------------------                  |
    D|-5-7---5--5-5555-|-4-5------------4-5-----                  |
    A|-----7-----------|-----5-7--7777------5---                  |
    E|-----------------|------------------------                  |Parte
                                                                  |  A
    G|--------------------------------------------------7--7--7-  |
    D|-------2-----2-0--0--0--0--------2--2--2--2-5--0----------  |
    A|-3-------------------------3------------------------------  |
    E|------------------------------
  • +
    ¡Colabora con nosotros!
    Envíanos tu versión de esta canción

Letra de Ciega ambición
EN GRISES CALLES INFECTADAS DE TENSION
SUCIAS PAREDES DEJAN VER LA DESUNION
TODO ESTA PROHIBIDO, SALVO SER UNO MAS;
DE LOS QUE OLVIDAN Y PIDEN SEGURIDAD.
SUICIDANDO MIS HORAS ESTOY,
MIENTRAS INSANOS SIGAN VIVIENDO,
ENCADENADOS AL DESAMOR
A LA DIVISION DE SU CIEGA AMBICION:
ANGELES VIENEN A AGUDIZAR MI INTUICION
CON EL ECHO CONVIVO AL ESQUIVAR,
AL REPRESOR PROGRAMADO PARA MATAR.
SUICIDANDO MIS HORAS ESTOY,
MIENTRAS INSANOS SIGAN VIVIENDO,
ENCADENADOS AL DESAMOR
A LA DIVISION DE SU CIEGA AMBICION:
SE ESTA CUMPLIENDO LA DIVINA PREDICCION,
Y EL ENREDO ACRESENTA EL DESCONTROL.
BOMBAS LATIENDO, PRETENDEN EXTINGUIR;
AL VIL ENGENDRO DE UN PLANETA SIN AMOR.
SUICIDANDO MIS HORAS ESTOY,
MIENTRAS INSANOS SIGAN VIVIENDO,
ENCADENADOS AL DESAMOR
A LA DIVISION DE SU CIEGA AMBICION.
Fin: B5 / F#5 / G5 / E5 / D#5 / E5
*1
y sigue...



© LaCuerda.net · aviso legal · privacidad · contacto