Acordes de Guitarra » V »V8 » Destrucción (Tab)

Destrucción
V8

  • Tablatura
    Intro:
    ----------------------------------|
    ----------------------------------|
    ----------------------------------|
    ----------------------------------|
    --7--------------7--(7)S-10--10---|
    --5--5-5-5-5-5-5-5--(5)S--8---8---| Repetir x8
    
    Verso:
        Ya no creo en nadie, ya no creo en ti......
    |-----------------------------|----------------------------------|
    |-----------------------------|----------------------------------|
    |---2--------2-------------7--|----------------------------------|
    |---2--------2--------5----7--|----------------------------------|
    |---0--------0--------5----5--|--7--------------7--(7)S-10--10---|
    |---------------------3-------|--5--5-5-5-5-5-5-5--(5)S--8---8---|  x2
    
    Estribillo:
      Sé que la decisión del juicio final
    ----------------------------------------|
    ----------------------------------------|
    ----------------------------------------|
    --7-----------------------------------5-|
    --7-----------------------------------5-|
    --5-----------------------------------3-|
  • Tablatura
    E|----------------------------------|
    B|----------------------------------|
    G|----------------------------------|
    D|----------------------------------|
    A|--7---7-7--7-7--7-7---7--7/10-10--|
    E|--5---5-5--5-5--5-5---5--5/8--8---|
     
    A                    A 
    Ya no creo en nadie, ya no creo en ti
    
    G             D           A     
    Ya no creo en nada porque nadie cree en mi
    
       D          C        Riff Principal
    Sé que la decisión del juicio final
    
       D          C        Riff Principal
    Será la solución, destrucción
    
    Solo:
    
  • Tablatura
    |------------------------------------------------------------------------|
    |------------------20^-(22)--20^-(22)--20-17-----------------------------|
    |---------17-14-17---------------------------17--------------------------|
    |------------------------------------------------------------------------|
    |------------------------------------------------------------------------|
    |------------------------------------------------------------------------|
    ^^^^^^^^^^^^^^^^^^^^^^^^^^^^^^^^^^^^^^^^^^^^^^^^^^^^^^^^^^^^^^^^^^^^^^^^^^^^^^^^^^
    LAS NOTAS 17,14,17 SON BARRIDAS
    
    |--------------20-----------------------------------------------------------|
    |-----20^-(22)----20^-(22)-0------------------------------------------------|
    |----------------------------19-17----------------20------------------------|
    |-----------------------------------19-17-19^(21)----19^(21)----------------|
    |---------------------------------------------------------------------------|
    |-----------------------------
  • Tablatura
    vientosdepoder.nico@hotmail.com
    destruccion v8
    
    |----------------------|
    |----------------------|
    |----------------------|%8
    |----------------------|
    |---7-------7-/10-10---|
    |---5555555-5-/8 -8----|
    
    
    verso 1
    ya no creo...      ya no creo...
    |----------------------|
    |----------------------|
    |--2<--------------2<--|
    |--2<--------------2<--|
    |--0<--------------0<--|
    |----------------------|
    
       por que nadie cree en mi
    |--------------------------|
    |--------------------------|
    |--------------------------|
    |--5---------7-------------|
    |--5---------7-------------|
    |--3---------5-------------|
    
    |----------------------|
    |----------------------|
    |----------------------|%1
    |----------------------|
    |---7-------7-/10-10---|
    |---5555555-5-/8 -8----|
    
     se que la desision de juisio final
     |----------------------------------|
     |----------------------------------|
     |-7--------------------------------|
     |-7----------5---------------------|
     |-5---------5----------------------|
     |----
  • Tab p/Bajo
    Intro
    
    G|----------------------------------------------------------------------|
    D|----------------------------------------------------------------------|
    A|----0-0-0-0--0--3-------0-0-0-0--0--3---------------------------------|
    E|----------------------------------------------------------------------|
    
    Verso
    
    Ya no creo en nada, ya no creo en ti...
    
    G|----------------------------------------------------------------------|
    D|----------------------------------------------------------------------|
    A|----0---------7--5--3---------- 0---------7--5--3---------------------|
    E|----------------------------------------------------------------------|
    
    ...ya no creo en nadie por q nadie cre en mi.
    
    G|----------------------------------------------------------------------|
    D|----------------------------------------------------------------------|
    A|----------5--------------------0-0-0-0--0--3-3------------------------|
    E|-----3-----------------------------------------------------
  • Tab p/Bajo
    Riff principal:
    G|-------------------------------------------|
    D|-------------------------------------------|
    A|-0-0-0-0-0-0-0-0-0-3---0-0-0-0-0-0-0-0-0-3-|
    E|-------------------------------------------| 
    
    A
    Ya no creo en nada 
    A
    Ya no creo en ti 
    G D
    Ya no creo en nadie 
    A A C
    Porque nadie cree en mi
    
    No dejan pensar 
    No dejan crecer
    No dejan mirar 
    pero por suerte puedo ver
    
    D C
    Que la decisión 
    A A C
    del juicio final
    D C A A C
    será la solución, destrucción
    
    Parece mentira, tanta estupidez 
    tanta hipocresía, tanta tozudez
    gente en la miseria eso es lo que son
    conformando el planeta 
    del yugo y del dolor
    
    Sé que la decisión del juicio final
    será la solución...
    
    Durante el solo: el riif con base
    en LA y en SI
    
    Se siente en el aire
    la fuerte tensión
    Esta es la imponente furia de mi motor.
    Arrasará con todos y también con vos 
    Que morirás llorando 
    por blando que sos 
    
    La decisión 
    del juicio final
    será la solución, destrucc
  • +
    ¡Colabora con nosotros!
    Envíanos tu versión de esta canción

Letra de Destrucción
Ya no creo en nadie, ya no creo en ti
Ya no creo en nada porque nadie cree en mi
Sé que la decisión del juicio final
Será la solución, destrucción
La base es el riff en LA x4, luego en SI x4, luego en LA x4 y finalmente en SI x4.
Yeite blusero en B (x2)
Estira estas notas para enganchar con este yeite rapido en B [x10] y terminar asi
Yeite blusero 2 [x2] Subida en B Final



© LaCuerda.net · aviso legal · privacidad · contacto