Acordes de Guitarra » V »V8 » Antes de los viejos reyes (Tab)

Antes de los viejos reyes
V8

  • Tablatura
    e|--------------------------------------------------------------------|
    b|--------------------------------------9-5-7-7/9---------------------|
    g|--------------------------------------7-5-5-5/7---------------------|
    d|-7----10----------------7----10-------------------------------------|
    a|-5-5--8--8---8----5-----5-5--8--8---8-------------/5-3-------3-5~~--|
    E|-------------6-6--3-3---------------6------------------6-3-5--------|
    
    
    D5
    Seres dañados sujetos al mal
    
    E5#
    mutilaron a quien quiso amar,
    
    A5# C5 D5
    cambiar, renovar o tan solo reir,
    
    D5
    con falsas historias quisieron callar
    
    
  • Tab p/Bajo
                                                 \
    G|-----------------------------------------  |
    D|-----------------------------------------  |
    A|-5--5-5-5--8--8-8-8----------------------  |
    E|---------------------6--6-6-6--3--3-3-3--  |
                                                 | Parte
    G|----------------------------------------|  |   A
    D|----------------------------7--5--5--7--|  |
    A|-5--5-5-5--8--8-8-8--6--6---------------|  |
    E|----------------------------------------|  |
                                                 /
    
    Repite parte A. Despues:
    
    “Seres dañados sujetos al mal mutilaron a…    \
    G|------------------------------------------  |
    D|------------------------------------------  |
    A|-5-5-5-5-5-5-5-5-5-5--8-8-8-8-8-8-8-8-8-8-  |
    E|------------------------------------------  |
                                                  | Parte
    …cambiar, renovar o tan solo reír…            |   B
    G|--------------------------------------|     |
    D|-----------------------------------3--|     
  • +
    ¡Colabora con nosotros!
    Envíanos tu versión de esta canción

Letra de Antes de los viejos reyes
Seres dañados sujetos al mal
mutilaron a quien quiso amar,
A5# C5 D5
cambiar, renovar o tan solo reir,
con falsas historias quisieron callar
las almas que en la inmensidad del mar,
A5# C5 D5
ahogaron el grito que desvaneció su vivir.
rompe tus horas pensando
antes que los viejos reyes
entonen un falso himno de amor
y su resplandor queme almas inocentes.
COMO INTRO
Sé un ejemplo de tu pensar,
brinda tu tiempo a quienes vendrán,
pues es alta la torre a destruir,
y con la base de dar y querer
será más fácil comprender
la forma de zafar del fin.
Rompe tus horas pensando
antes que los viejos reyes
entonen un falso himno de amor
y su resplandor queme almas inocentes.
COMO INTRO
Queme almas inocentes!!!
(delay)
(trino)
No meditamos la eternidad
pues la ocultan nuestros dueños,
quienes quemaron la identidad
de nuestras almas con su fuego.
FINAL:



© LaCuerda.net · aviso legal · privacidad · contacto