Acordes de Guitarra » V »V8 » Ideando la fuga (Tab)

Ideando la fuga
V8

  • Tablatura
    e-----------------------------------------------------------------------------
    b-----------------------------------------------------------------------------
    g--------------10-9-7--------------10-9-7-------------10--9--7----10-----9----
    d--9---------9--8-7-5--9---------9--8-7-5-9---------9--8--7--5--8----8-7---7--
    a--7-7-7-7-7-7---------7-7-7-7-7-7--------7-7-7-7-7-7-------------------------
    E-----------------------------------------------------------------------------
    
    
    Hoy Desperte a un nuevo dia, de esta crueta realidad 
    
    Que nos imponen ante su gozo, fuerzas sinistras del mal 
    
    C                    D
    Masturbando mi mente por lo inmoral 
    C                D 
    Quitandome el tiempo a pensat
    C                D                        Intro
    En expulsar de mi mente su sembrado maaal !!!
    
    
    
  • Tablatura
    e|---------------+---------------------------------------------------------------------------|
    B|---------------+---------------------------------------------------------------------------|
    G|--9---------9--+--10--9--7--9---------9--10--9--7--9-------9--10--9--7------10-------9-----|
    D|--9---------9--+--8---7--5--9---------9--8---8--5--9-------9--8---8--5--5/8-----8-7----7~--|
    A|--7---------7--+------------7---------7------------7-------7-------------------------------|
    E|-----0-0-0-----+---------------0-0-0-----------------0-0-0---------------------------------|
    
    Repite intro y empieza Con INTRO como base
    
    HOY DESPERTE A UN NUEVO DIA
    DE ESTA CRUENTA REALIDAD
    QUE HOY ME IMPONE ANTE SU GOZO
    FUERZAS SINIESTRAS DEL MAL!!!
    
    C D G / F# / E 
    MASTUBANDO MI MENTE CON LO INMORAL
    C D G / F# / G / F# 
    QUITANDOME TIEMPO APENSAR
    C D
    EN EXPULSAR DE MI MENTE
    
  • Tab p/Bajo
           (3 veces)
    G|---------------------|------------------
    D|------------8--7-----|-8--8--8-7--7--7/- Parte
    A|-7-7|7|7-7--------10-|------------------   A
    E|---------------------|------------------
    
    Repite parte A. Despues:
    
           (3 veces)
    “Hoy desperte…
    G|---------------------|------------14-----
    D|---------------------|------------14-----  Parte
    A|---------------------|---------0------12-    B
    E|-0-0|0|0-0--6--5--3--|-6--6--6-----------
    
    …que nos imponen…
    G|---------------------|----------------
    D|---------------------|----------------
    A|---------------------|------------6--0
    E|-0-0|0|0-0--6--5--3--|-6--6--6-5------
    
    …masturbando mi mente con lo inmoral,quitandome el tiempo a pensar…  \
    G|--------------------------------------------------------           |
    D|---------------------5--4------------------------5-4-5-4           |
    A|-3-3--3-3-3--3-5-5--5-----5--3-3--3-3-3--3-5-5--5-------           |
    E|--------------------------------------------------------           |
             
  • +
    ¡Colabora con nosotros!
    Envíanos tu versión de esta canción

Letra de Ideando la fuga
Repite intro y empieza Con INTRO como base
HOY DESPERTE A UN NUEVO DIA
DE ESTA CRUENTA REALIDAD
QUE HOY ME IMPONE ANTE SU GOZO
FUERZAS SINIESTRAS DEL MAL!!!
MASTUBANDO MI MENTE CON LO INMORAL
QUITANDOME TIEMPO APENSAR
EN EXPULSAR DE MI MENTE
SU SEMBRADO MAL
Como intro 1 vez
QUIERO PENSAR Y COMPRENDER
CUAL ES MI TAREA ACA
TALVEZ SEA PODER VIVIR?
SIN TENER PRESENTE EL FIN
EL FUTURO ES DESTRUCCION,
LO VEO A MI ALREDEDOR
TODO FUE OBRA DE QUIEN
PRIMERO SU MENTE ENTREGO
ANTE LA FACIL TENTACION DEL MAL
DE ESAS FUERZAS SINIESTRAS
QUE HOY MANEJAN
EL RUMBO DE LA HUMANIDAD
ES TARDE YA PARA SALIR?
DE ESTE RUMBO HASTA EL FIN
DETENGAN YA ESE IDEAL
DE QUERER TODO Y NO DAR
DESPUES DE UNIRNOS
PODREMOS PENSAR
EN DAR EL PASO FINAL
Y EXPULSAR DE NUESTRAS MENTES
SU SEMBRAD.
O MAL
SERE EL PRIMERO EN COMENZAR
EN DAR EL PASO TRIUNFAL
Y EN DESTRUIR LAS BARRERAS
QUE IMPIDEN MI PENSAR!



© LaCuerda.net · aviso legal · privacidad · contacto