Acordes de Guitarra » V »V8 » Brigadas Metálicas (Tab)

Brigadas Metálicas
V8

  • Tablatura
      C5 / E5 / A5                      C5 / E5 / A5
    e|             +------------------+              +-----------------|
    B|             +------------------+              +-----------------|
    G|             +------5------5----+              +--7/(9)\7^5^7^5--|
    D|             +--5^7----5^7---7~-+              +-----------------|
    A|             +------------------+              +-----------------|
    E|             +------------------+              +-----------------|
    
      C5 / E5 / A5                                A5                
    e|             +-------------9/(10)-9/(10)~--+----------------------------------------|
    B|             +--8/(10)\8^5-----------------+--5--8^5---5--8^5---5--8^5---5--8^5-----|
    G|             +-----------------------------+---------7--------7--------7--------7~--|
    D|             +-----------------------------+----------------------------------------|
    A|             +-----------------------------+----------------------------------------|
    E|             +-----------------------------+----------------------------------------|
    
    e|----------------------------------------------------------------------------------------|
    B|----------------------------------------------------------------------------------------|
    G|----------------------------------------------------------------------------------------|
    D|-----9------------------------9------------------------9--------------------------------|
    
  • Tab p/Bajo
    Intro
    
    G|-----------------------------------------------------------------------|
    D|-----------------------------------------------------------------------| X 4
    A|------------------------5---7---0--------------------------------------|
    E|-----------------------------------------------------------------------|
    
    G|-----------------------------------------------------------------------|
    D|-----------------------------------------------------------------------|X 4
    A|------------------------5---7---0-0-0-0-0-0-0---0----------------------|
    E|-----------------------------------------------------------------------|
    
    G|-----------------------------------------------------------------------|
    D|-----------------------------------------------------------------------|
    A|---------0-0-6-0-0-6-0-0-6-0-0-6---------------------------------------|
    E|-----------------------------------------------------------------------|
    
    Verso
    
    G|-------------------------------------------------------
  • Tab p/Bajo
         (4 veces)              (3 veces)
    G|----------------|-----------------------------|----------------------------
    D|----------------|-----------------------------|----------------------------
    A|-3--5-0---------|-3--5-0--0-0-0-0-0-0-0-0-0-0-|-3--5-0--5-0-0--5-0-0--5-0-0
    E|----------------|-----------------------------|----------------------------
    
                 (3 veces)
    “Los que estan podridos de aguantar…  …las caras que marcan el ayer…
    G|------------------------------------|--------------------------------
    D|-----------------3--3-3-3-3-3-3-----|-----------------3--3-3-3-3-3-3- Parte
    A|-5-5-5-5|2--2-2-2---------------3-3-|-5-5-5-5|2--2-2-2---------------   A
    E|------------------------------------|--------------------------------
    
    …vengan todos aca hay un lugar junto a la brigada del metal…  \
    G|--------------------3-------3-------5-----5---------------  |
    D|----------------------------------------------------------  |
    A|-5----5-5-5-5-5-1-------1--------3-----3-----5----5-8--7--
  • +
    ¡Colabora con nosotros!
    Envíanos tu versión de esta canción

Letra de Brigadas Metálicas
Los que están podridos de aguantar
El llanto de los que quieren la paz
Los que están ya tan hartos de ver
Las caras que marcan el ayer
Vengan todos, aquí hay un lugar
Junto a la brigada del metal
Gente demente que no es igual,
A la hiponada de acá
Sáquense ya la careta,
Rompan las ruedas de careta
Y sin demora ni sospecha
Consuman toso el heavy metal
Sáquense... Rompan... Y sin... Consuman...
Basta ya de signos de la paz
Basta de cargar con el morral
Si estás tan cansado de llorar
(este es el momento de gritar)
que estás vacio de liberación
y estás muy lleno de represión
que la realidad te es infeliz
y que hoy tu mente hippie
ha de morir.
C5/E5/A5
Sigue...
Prontas surgen las ordas del mal
Listas para el paso final
Son los que están hartos de ver
Las caras que marcan el ayer
Vengan todo aquí hay un lugar
Junto a la brigada del metal
Gente demente que no es igual
A la hiponada de acá.
Vengan todo aquí hay un lugar
Junto a la brigada del metal
Gente demente que no es igual
A la hiponada de acá.
Fin: D5~~



© LaCuerda.net · aviso legal · privacidad · contacto