Acordes de Guitarra » S »Soziedad Alkoholika » Feliz Falsedad (Tab)

Feliz Falsedad
Soziedad Alkoholika

Letras, Acordes y Tabs para Guitarra, Bajo y Ukulele

  • A5 E5
                             A5
    OTRA VEZ LLEGA LA NAVIDAD (OTRA VEZ LA NAVIDAD)
                      A5
    LA GENTE HEMANA FELICIDAD (HEMANA FELICIDAD)
                      B5
    TODOS SONRÍEN SIN PARAR (TODOS SONRÍEN SIN PARAR)
                      D5
    A QUIEN PRETENDEN ENGAÑAR?
             D#5               B5
    SI TODO SIGUE IGUAL......
    B5
    MÁS CHUTES NO
    
    G5 A5  D5  G5 A5  D5  G5 A5
    
                      A5
    EN NAVIDAD EN JERUSALEM
                        A5
    Y EN NAVIDAD MATAN TAMBIÉN
    
  • NOTACION
    
    h= hammer on
    p= pull off
    s= slide
    *= tocar muchas veces esa nota o acorde
    PM= palm muted (si va seguido de una línea de pintos hacerlo
    hasta donde termina la línea de puntos)
    
    ------------------------------------------------------------
    
    AFINACION
    
    Normal (standar)
    
    ------------------------------------------------------------
    
    
    INTRO
    
    1) (Otra vez llega...)
    
    -------------------------
    -------------------------
    -------------------------
    ----------------7--6-----
    --7---7----9----5--4--9--
    --5---5----7----------7--
    
    2) (¡AN, TWO, TRES, LAU!)
    
    ---------------------------
    ---------------------------
    ---------------------------
    --------7---------7--------
    --5-7---5---5-7---5---5-7--
    --3-5-------3-5-------3-5--
    
    
    VERSO
    
    1) (Es navidad en Jerusalen...)
    
    --------------------------------
    --------------------------------
    --------------------------------
    -----------------7--6-----------
    --7----7----9----5--4--7---5-7--
    --5*---5*---7*-----
  • NOTA:
    
    Espero y te ayude en algo esta tab.
    Si necesitas una tab en especial, escríbeme o visita...
    
    *******************************************
    * http://www.myspace.com/alejandrolauyola *
    *******************************************
    
    - Revisa la afinación de esta canción en especial
    - Pon atención a las instrucciones que están al final
    - CALIFICA SOLO SI LEÍSTE "EL MANUAL"-
    
         W                   W                   W
    G||-------------------|-------------------|-------------------|
    D||-------------------|-------------------|-------------------|
    A||-------------------|-------------------|--0----------------|
    D||-------------------|-------------------|-------------------|
    
    
      W                   H        H           W
    -------------------|--------------------|-------------------|
    -------------------|--------------------|-------------------|
    --L----------------|--L-----------------|-------------------|
    -------------------|--------------------|-------------------|
    
    
      W              
  • +
    ¡Colabora con nosotros!
    Envíanos tu versión de esta canción

Letra de Feliz Falsedad
OTRA VEZ LLEGA LA NAVIDAD (OTRA VEZ LA NAVIDAD)
LA GENTE HEMANA FELICIDAD (HEMANA FELICIDAD)
TODOS SONRÍEN SIN PARAR (TODOS SONRÍEN SIN PARAR)
A QUIEN PRETENDEN ENGAÑAR?
SI TODO SIGUE IGUAL......
MÁS CHUTES NO
EN NAVIDAD EN JERUSALEM
Y EN NAVIDAD MATAN TAMBIÉN
JESUSITO YA VA A NACER
QUE TE PILLE UN PALESTINO
CACHO MAMÓN Y QUE TE CÜEL..........GUE DE UN PINO
EL GRAN NEGOCIO VA A COMENZAR (EL NEGOCIO VA A COMENZAR)
LOS PRECIOS POR LAS NUBES ESTÁN (POR LAS NUBES YA ESTÁN)
TODOS COMO LOCOS A COMPRAR
TODO SEA PORQUE ES NAVIDAD
Y HAY QUE APARENTAR (ANDA YA)
COMPRAR UN PAVO Y CHAMPÁN
ESO NO NOS PUEDE FALTAR
AUNQUE MAÑANA NO HAYA PÁ COMER
TODO SEA PORQUE ES NAVIDAD
Y HAY QUE APARENTAR (APARENTAR)
LOS....
LOS POBRES NIÑOS SON.....
SON MANCHADOS POR LA....
POR LA TELEVISIÓN....
POR MILES DE ANUNCIOS
EN LOS QUE EL NIÑO SOLO TIENE
QUE APRETAR UN BOTÓN
Y PARA NADA CUENTA SU IMAGINACIÓN
PARA NADA CUENTA SU IMAGINACIÓN (NOOOOOOOO) (SU IMAGINACIÓN)
POR ESO Y MÁS (ME CAGO EN LA NAVIDAD)
PUTA NAVIDAD (ME CAGO EN LA PUTA NAVIDAD)
POR ESO Y MÁS (ME CAGO EN LA NAVIDAD)
PUTA NAVIDAD
MILLONES DE ABETOS CORTAOS (POR UNA ESTÚPIDA TRADICIÓN)
QUE LUEGO ACABARÁN TIRAOS (EN LA BASURA EN CUALQUIER LAO)
LUCES POR TODA LA CIUDAD (PARA INTENTARLA DISFRAZAR)
ANUNCIOS DE PÁ YÁ Y PÁ CÁ
(NO) SE PUEDE HACER NÁ (CABRÓN)
PERO SOLO EN NOCHEVIEJA (TODO SE VUELVE MACABRO)
DESATAR SU FRUSTRACIÓN (HOY TODO ESTÁ PERMITIDO)
LE METO MANO A UNA CHICA (Y A ESTE LE METO UN SOPAPO)
QUE DIVERTIDO SOY
POR ESO Y MÁS (ME CAGO EN LA NAVIDAD)
PUTA NAVIDAD (ME CAGO EN LA PUTA NAVIDAD)
POR ESO Y MÁS (ME CAGO EN LA NAVIDAD)
PUTA NAVIDAD
(POR ESO Y MUCHAS COSAS MÁS
ME CAGO EN LA PUTA (PUTA NAVIDAD)
TANTA FALSEDAD...TANTA HIPOCRESÍA
TANTA FALSEDAD....FALSEDAD...
VENGA IDIOTAS A COMPRAR.....
SOMOS EL ESPÍRITU DE LA NAVIDAD...
OS VAMOS A SACAR HASTA LA MÉDULA ESPINAL
OS VAMOS A SACAR HASTA LA MÉDULA ESPINAL....
......FELIZ FALSEDAD)




[Feliz Falsedad chords][Feliz Falsedad cifra]
© LaCuerda.net · aviso legal · privacidad · es · en · pt · contacto
DINAMICO