Acordes de Guitarra » S »Soziedad Alkoholika » Cuando nada vale nada (Tab)

Cuando nada vale nada
Soziedad Alkoholika

Letras, Notas, Punteos, Tablaturas y Acordes de Guitarra (Tabs & Chords)

  • Tablatura
    ================ www.atame.org ==================
    +-----------------------------------------------+
    | Soziedad Alkoholika                           |
    | CUANDO NADA, VALE NADA                        |
    | ---???---                                     |
    | ---???--- ()                                  |
    +-------------------------------------------BAS-+
    =========LAS PISADAS DEL ROCK EN ESPAÑOL=========
    
    + Tabulados de made in spain!                   +
    + (http://mades.kaos.es)                        +
    +++++++++++++++++++++++++++++++++++++++++++++++++
    
            Otro tema del "No intente hacer esto en su casa!", antes
        ya saque PECES MUTANTES y aqui va mi favorita, tambien guitarra
        y bajo.
    
            Como el mundo esta plagado de tios que tocan la guitarra mejor
        que yo y se pegan unos solos que te cagas, se sacan las canciones
        como quieren y... mandad sugerencias, modificaciones, arreglos... a
                                   <mades@kaos.es>
    
            Como
  • Tab p/Bajo
    (Intro)
    G--------------------------------------]
    D--------------------------------------]
    A-2-2-2-2-2-2-------5-5-5-5-------7----]
    E--------------3-3----------5-5--------]
    
    
    (1)  (*)=muchas veces, escuchad el CD.
    G-----------------------------------------------------------]
    D-----------------------------------------------------------]
    A-2-2-2-2-2-2-------5-5-5-5-------7-7-----5-5-5-5--7-7-7-7--]
    E--------------3-3----------5-5-------7*-3------------------]
    
    (2)
    G-----------------------------------------------------------]
    D-----------------------------------------------------------]
    A-2-2-2-2-2-2------5-5-5-5-------7-7-----5-5-5-5------------]
    E--------------3-3----------5-5------7*-3----------3-3-5-5--]
    
    (3)
    G-----------------------------------------------------------]
    D-----------------------------------------------------------]
    A-2-2-2-2-2-2-----5-5-5-5-------7-7------5-5-5-5------------]
    E--------------3-3----------5-5------7*-3-----------3-3-4---]
    
    (4)
    G---------------------------
  • +
    ¡Colabora con nosotros!
    Envíanos tu versión de esta canción



Videos de Cuando nada vale nada
[ver más videos]

[ver todas las canciones]


© LaCuerda.net · Aviso Legal · Privacidad