Tablatura para Bajo de Soda Stereo: un misil en mi placard
Conexión · Inscripción
Letras y Acordes
Pantalla Completa
Imprimir
Versión Texto
Añadir Favorito
Otras Versiones

Mostrar Diagramas
Desfile Automático
Formato del Texto


Soda Stereo
un misil en mi placard(BAJ)
calidad:
soda0606
AUTOR: Gustavo Cerati
ALBUM: Comfort y Música Para Volar: Unplugged (1984)
Enviado por Ariel, basado en Adrián, Mariano
Un Misil En Mi Placard - Soda Stereo
Album: Soda Stereo (1984)



P= Popping


INTRO



G--------------------4----------------------------------------------------
D----------22------------2------------------------------------------------
A----2--------2h4--2---4--------------------------------------------------
E--4---4-2----------------00----------------------------------------------


G-----------------------4-------------------------------------------------
D-------------22-------------2--------------------------------------------
A-----2-----4----2h4--2---4-----------------------------------------------
E--4-4--4-2-------------------00------------------------------------------


G------------------4------------------------------------------------------
D----------22------------2------------------------------------------------
A----2--------4--2---4----------------------------------------------------
E--4---4-2----------------00----------------------------------------------



G--4----------------------------------------------------------------------
D----4----5h7-------6-------7---------------------------------------------
A------22-----------------------------------------------------------------
E-------------55-04--44--05--555------------------------------------------

G--4----------------------------------------------------------------------
D----4----5h77------------------------------------------------------------
A------22-----------------------------------------------------------------
E-------------555/--00000000--022222--5/----------------------------------



G--------------------4----------------------------------------------------
D----------22------------2------------------------------------------------
A----2--------2h4--2---4--------------------------------------------------
E--4---4-2----------------00----------------------------------------------

G--------------------4----------------------------------------------------
D----------22------------2------------------------------------------------
A--2---------------2---4--------------------------------------------------
E----4--------------------00----------------------------------------------

G--4----------------------------------------------------------------------
D----4----5h7-------6-------7---------------------------------------------
A------22-----------------------------------------------------------------
E-------------55-04--44--05--555------------------------------------------

                     P P      P P
G--4-----------------6-4------6-4-----------------------------------------
D----4----5h77------------------------------------------------------------
A------22-----------------4-2------7-6------------------------------------
E-------------555/--------------------------------------------------------


G-------------------------------------------------------------------------
D-------------------------------------------------------------------------
A--222-2---00000000--444-4------------------------------------------------  x 4
E--------4-----------------0-22222222-------------------------------------


Te mire
tristemente...


G--------------------4----------------------------------------------------
D------------------------2------------------------------------------------
A---------------4--2---4--------------------------------------------------
E-------------------------00----------------------------------------------


G--------------------4----------------------------------------------------
D------------------------2------------------------------------------------
A--2------------4--2---4--------------------------------------------------
E----4-2------------------00----------------------------------------------



G--4----------------------------------------------------------------------
D----4----5h7-------6-------7---------------------------------------------
A------22-----------------------------------------------------------------
E-------------55-04--44--05--555------------------------------------------

                     P P      P P
G--4-----------------6-4------6-4-----------------------------------------
D----4----5h77------------------------------------------------------------
A------22-----------------4-2------7-6------------------------------------
E-------------555/--------------------------------------------------------





G-------------------------------------------------------------------------
D-------------------------------------------------------------------------
A--222-2---00000000--444-4------------------------------------------------ x 6
E--------4-----------------0-22222222-------------------------------------

*(Con algunas variaciones, a partir de la 3ra vez cuando se toca)


G-------------------------------------------------------------------------
D-------------------------------------------------------------------------
A-------------------------------------------------------------------------  x 4
E--00000000000--2222222--5/-----------------------------------------------




Escuchen bien el tema antes de tocarlo


Transcripcion hecha por: Loster
algun duda a: loster1452@hotmail.com
Este fichero es trabajo propio de su transcriptor y representa su interpretación personal de la canción. El material contenido en esta página es
para exclusivo uso privado, por lo que se prohibe su reproducción o retransmisión, así como su uso para fines comerciales.
© LaCuerda.net · Aviso Legal · Privacidad