Acordes de Guitarra » S »Soda Stereo » Tele-K (Tab)

Tele-K
Soda Stereo

Letras, Acordes y Tabs para Guitarra, Bajo y Ukulele

  • A     C#m   F#m   E    D   F   A#   E
    
    
    
    A     C#m   F#m   E     D            F
    Dejalo ser, dejalo sacudirse bien
                 A#   E
    No hay trampa en esto
    A     C#m   F#m   E      D           F
    Ya vas a ver como tu cuerpo se abre
                 A#   E      Dm
    No esperes mas de mi…
    
    Am  C G      E
    Tele,  telekinesis
    Am  C G      E
    Moveras tus pies
    Am  C G      E
    Tele, telekinesis
    Am  C G      E
    
  • A     C#m   D   C#m    D   F   A#   E
    
    
    
    A     C#m   D   C#m     D            F
    Dejalo ser, dejalo sacudirse bien
                 A#   E
    No hay trampa en esto
    A     C#m   D   C#m      D           F
    Ya vas a ver como tu cuerpo se abre
                 A#   E      Dm
    No esperes mas de mi…
    
    Am           G
    Tele, telekinesis
    Am           G
    Moveras tus pies
    Am           G
    Tele, telekinesis
    Am           G
    
  • Un buen tema movido y de los pocos viejos q volvieron a tocar en la
    ultima gira Me Veras Volver...
    
    0:17
    
    g--------------------------------------------------------  son diez
    D-----------------------------------------------1010-----  no uno y
    A---66-------77-1010----99-----66-------77-1010------99--  cero
    E--7---44-22---------88-----77----44-22------------------
    
    
    0:28
    Estrofa
    
    "Dejalo ser, dejalo sacudirse bien (no hay trampa en esto)
     Ya vas a ver como tu cuerpo se abre (no esperes mas de mi)
    
                            P                              P
    g------------------------------------------------------------------
    D----------------------10-----------------------------10-----------
    A---66-------77-1010------7_9-7_9--66-------77-1010------7_9-7_9-7-
    E--7---44-22---------88--8-------7----44-22---------88--8----------
    
       P          P
    g--9----------9-------
    D---------------------
    A-7--77-7-77-7-77-7/--    (P) pop
    E---------------------
    
    
    0:44
    Estribillo
    
    "Tele, tele kinesis y moveras tu
  • GIRA MVV 2007
    
    INTRO
    G---------------------------------------------------------
    D--------------------------------------------------88-----
    A------44-99-77-55-88------77------44-99-77-55-88------77-
    E--55------------------66------55-------------------------
    
    
    VERSO I
    GD--------------------------------------------------------
    A------44-99-77-55-88------77------44-99-77-55-88------77-
    E--55------------------66------55------------------66-----
    
    G----------------------
    D----------------------
    A---5-5--5-5--5-5--5-5-
    E----------------------
    
    
    ESTRIBILLO
    G---------------------
    D---------------------   X4
    A-------3-3-----------
    E--5-5-------3-3--0-0-
    
    
    VERSO II
    G-------------------------------------------------------------
    D-------------------------------------------------------------
    A------44----------55-88------77-------44-99-77-55-88------77-
    E--55------22--00---------66-------55------------------66-----
    
    G--------7----------7-----------
    D----------------5--------------
    A---5-5-----5-5----
  • +
    ¡Colabora con nosotros!
    Envíanos tu versión de esta canción
  • Tutorial
    HD
    TeleKa - SODA STEREO MVV (tutorial)
    2:36

Letra de Tele-K
Dejalo ser, dejalo sacudirse bien
No hay trampa en esto
Ya vas a ver como tu cuerpo se abre
No esperes mas de mi…
Tele, telekinesis
Moveras tus pies
Tele, telekinesis
Moveras tus pies
Aumentan decibeles, se quiebran las paredes
Soltemos todo
Con tanta fuerza, con tanta electricidad
Tendremos que entender…
Tele, telekinesis
Moveras tus pies
Tele, telekinesis
Moveras tus pies
Dejalo ser, dejalo sacudirse bien
No hay trampa en esto
Ya vas a ver como tu cuerpo se abre
No esperes mas de mi
No esperes mas de mi (x6)
No esperes, no esperes mas de mi…




[Tele-K chords][Tele-K cifra]
© LaCuerda.net · aviso legal · privacidad · es · en · pt · contacto