Acordes de Guitarra » S »Soda Stereo » Telarañas (Tab)

Telarañas
Soda Stereo

Letras, Acordes y Tabs para Guitarra, Bajo y Ukulele

  • e------12--10--8---7--7--8--7
    B--10--10--10--10--8--8--8--8
    G--9-------------------------
    
    e------12--10--8---7--7--8--7
    B--10--10--10--10--8--8--8--8
    G--9-------------------------
    
    e------12--10--8---7--7--8--7
    B--10--10--10--10--8--8--8--8
    G--9-------------------------
    
    e--7--7--8--7---------8--7
    B--8--8--8--8-------8-----
    G--------------7--9-------
    
    LAm     MIm
     Debo tomar el antídoto
     SOL     REm
     Para romper con la dives
    
  • e-X---12--10--8---7-7-7-7-
    B-10--10--10--10--8-8-8-8-
    G-9---9---9---X---9-9-9-9-
    D-10--10--10--10-----------
    
    e-X---12--10--8---7-7-7-7-
    B-10--10--10--10--8-8-8-8-
    G-9---9---9---X---9-9-9-9-
    D-10--10--10--10-----------
    
    
    e-X---12--10--8---7-7-7-7--7-7-8-8-8-7-
    B-10--10--10--10--8-8-8-8--8-8-8-8-8-8-
    G-9---9---9---X---9-9-9-9--7-7-7-7-7-7-
    D-10--10--10--10------------------------
    
    LAm     MIm
     Debo tomar el antídoto
     SOL     REm
     Para romper con la dives
    
  • +
    ¡Colabora con nosotros!
    Envíanos tu versión de esta canción

Letra de Telarañas
Debo tomar el antídoto
Para romper con la dives
Vivo como un sonámbulo
Buscando pliegues en la pared
Telerañas, sueño con
telarañas
Telarañas,
que cuelgan de mí
Esto parece un museo de cera
Un simulacro demasiado real
Debo encontrar algun sitio afuera
Debo cambiar la cena entre...
Telarañas, sueño con
telarañas
Telarañas
que cuelgan de mí
Mis ojos perciben otra vez
Imágenes-retro
Asi es la trama de este film
Tu propio reflejo
reflejo
Mis ojos perciben otra vez
Imágenes-Retro
Reproduciéndose sin fin
Dejándome inmovil entre ...
sta s mi 1ª cncion ... spero les gust




[Telarañas chords][Telarañas cifra]
© LaCuerda.net · aviso legal · privacidad · es · en · pt · contacto