Acordes de Guitarra » S »Soda Stereo » Primavera 0 (Tab)

Primavera 0
Soda Stereo

Letras, Acordes y Tabs para Guitarra, Bajo y Ukulele

  • Intro: DO5 SOL/SI SIb5 FA/LA LAb5 MIb/SOL
           FA5 DO/MI MIb5 SIb/RE DO5 SOL5
    
    DO5      SOL/SI
       Fluorescente azul,
    SIb5         FA/LA
    Luz que baña mis  sentidos,
    LAb5          MIb/SOL     FA5
    Donde todo empiece a ser real.
              DO/MI
    Siempre vuelve a dar
     MIb5          SIb/RE       DO5
    Nuevas chances, una vuelta mas
       SOL5
    Entera...
    
    Nena tal vez fui
    Un sueño de otro,
    Un mundo incierto,
    La verdad es que nadie
    
  •    C5                       G/B                     Bb5
    e/-x--x--x--x--x--x--x--x-/-x--x--x--x--x--x--x--x-/-x-x-x-x-x-x-x-x-/
    b/-x--x--x--x--x--x--x--x-/-x--x--x--x--x--x--x--x-/-x-x-x-x-x-x-x-x-/
    g/-x--x--x--x--x--x--x--x-/-x--x--x--x--x--x--x--x-/-x-x-x-x-x-x-x-x-/
    d/-10-10-10-10-10-10-10-10/-9--9--9--9--9--9--9--9-/-8-8-8-8-8-8-8-8-/
    a/-10-10-10-10-10-10-10-10/-10-10-10-10-10-10-10-10/-8-8-8-8-8-8-8-8-/
    E/-8--8--8--8--8--8--8--8-/-7--7--7--7--7--7--7--7-/-6-6-6-6-6-6-6-6-/
    
    
     F/A               G#5               Eb/G              F5
    -x-x-x-x-x-x-x-x-/-x-x-x-x-x-x-x-x-/-x-x-x-x-x-x-x-x-/-x--x--x--x--x--
    -x-x-x-x-x-x-x-x-/-x-x-x-x-x-x-x-x-/-x-x-x-x-x-x-x-x-/-x--x--x--x--x--
    -x-x-x-x-x-x-x-x-/-x-x-x-x-x-x-x-x-/-x-x-x-x-x-x-x-x-/-10-10-10-10-10-
    -7-7-7-7-7-7-7-7-/-6-6-6-6-6-6-6-6-/-5-5-5-5-5-5-5-5-/-10-10-10-10-10-
    -8-8-8-8-8-8-8-8-/-6-6-6-6-6-6-6-6-/-6-6-6-6-6-6-6-6-/-8--8--8--8--8--
    -5-5-5-5-5-5-5-5-/-4-4-4-4-4-4-4-4-/-3-3-3-3-3-3-3-3-/-x--x--x--x--x--
    
    
               C/E                     D#5                Bb/D
    x--x--x--/-x--x--x--x--x--x--x--x-/-x-x-x-x-x-x-x-x-/-x-x-x-x-x-x-x-x-
    
  • C         B          A#            A
      Fluorescente azul, luz que baDa mis sentidos
    
    G#             G             F
    donde todo empieza a ser real
                                                     
              E           D#             D           C *(entra LA guitarra)
    siempre vuelve a dar nuevas chances, una vuelta m©s
    
    C    G
      entera...
    
    C         B          A#            A
    Nena, tal vez fui un sueDo de otro, un rumbo incierto
    
    G#                   G              F
    la verdad es que nadie vive sin amor
    
            E                D#          D             C
    y ahora estoy aqu¡, temblando fr©gil en la multitud
    
  •   C5                      B5              A#5
    E---------------------------------------------------------
    B---------------------------------------------------------
    G---------------------------------------------------------
    D---------------------------------------------------------
    A-10-10-10-10-10-10-10-10-9-9-9-9-9-9-9-9-8-8-8-8-8-8-8-8-
    E-8--8--8--8--8--8--8--8--7-7-7-7-7-7-7-7-6-6-6-6-6-6-6-6-
    
      A5              G#5             G5                C5
    E---------------------------------------------------------------------------
    B---------------------------------------------------------------------------
    G---------------------------------------------------------------------------
    D---------------------------------------------------------------------------
    A-7-7-7-7-7-7-7-7-6-6-6-6-6-6-6-6-5-5-5-5-5-5-5-5-&-10-10-10-10-10-10-10-10-
    E-5-5-5-5-5-5-5-5-4-4-4-4-4-4-4-4-3-3-3-3-3-3-3-3-&-8--8--8--8--8--8--8--8--
    
    
      B5              A#5             A5
    E-------------------------------------------------
    B-------------------------------------------------
    
  • Este es el punteo que hace Cerati en la gira me veras volver
    espero que les guste porque me costo mucho trabajo sacarlo
    el solo empieza despues de cantar "despues de 10 años..la espero"
    
    
    
    e--------------|--------------|------------------|------------------
    B--------------|--------------|------------------|------------------
    G--------------|--------------|------------------|------------------
    D--------------|--------------|------------------|------------------
    A--------------|--------------|-3-3-3-3-3-3-3-3--|-1-1-1-1-1-1-1-1--
    E-5-3-5--0-3-5-|-6-5-6--6-5-3-|------------------|------------------
    
    e--------------|--------------|------------------|------------------
    B--------------|--------------|------------------|------------------
    G--------------|--------------|------------------|------------------
    D--------------|--------------|------------------|------------------
    A--------------|--------------|-3-3-3-3-3-3-3-3--|-1-1-1-1-1-1-1-1--
    E-5-3-5--0-3-5-|-6-5-6--6-5-3-|------------------|
  • otra vez yo por que sus transcripciones estan bien feas ahi les 
    va dudas y comentarios a mi mail
    
    afinacion standard (e,a,d,g)
    
    RIFF 1
    
    G---------------------------------------------------------------------------------------------
    D---------------------------------------------------------------------------------------------
    A---------------------------------------------------------------------------------------------
    E-8-8-8-8-8-8-8-7-7-7-7-7-7-7-7-6-6-6-6-6-6-6-5-5-5-5-5-5-5-4-4-4-4-4-4-4-4-3-3-3-3-3-3-3-3-3-
    
    G---------------------------------------------------------------------------------------------
    D---------------------------------------------------------------------------------------------
    A-8-8-8-8-8-8-8-7-7-7-7-7-7-7-7-6-6-6-6-6-6-6-5-5-5-5-5-5-5-3-3-3-3-3-3-3-3-------------------
    E---------------------------------------------------------------------------3-3-3-3-3-3-3-3-3-
    
    RIFF 2 Y SOLO DE GUITARRA
    
    
    G----------------------------------------------------
  •      Primavera cero
    
         Después de la intro de guitarra
    
         1   2   3   4    1   2   3   4    1   2   3   4    1   2   3   4
    C   |X---------------|----------------|----------------|----------------|
    H   |--x-x-x-x-x-x-x-|--x-x-x-x-x-x-x-|x-x-x-x-x-x-x-x-|x-x-x-x-x-x-x-x-|
    S   |----o-------o---|----o-------o---|----o-------o---|----o-------o---|
    B   |o-o---o-o-o---o-|o-o---o-o-o---o-|o-o---o-o-o---o-|o-o---o-o-o---o-|
    
         Se mantiene esta base hasta el estribillo
                                                            Fill(mas o menos)
         1   2   3   4    1   2   3   4    1   2   3   4    1   2   3   4
    C   |X---------------|----------------|----------------|----------------|
    H   |--x-x-x-x-x-x-x-|--x-x-x-x-x-x-x-|x-x-x-x-x-x-x-x-|x-x---x---x-----|
    S   |----o-------o---|----o-------o---|----o-------o---|----oo--oo--oooo|
    B   |o-o---o-o-o---o-|o-o---o-o-o---o-|o-o---o-o-o---o-|o-o-------------|
    
    Estribillo                                              fill
    
       
  • +
    ¡Colabora con nosotros!
    Envíanos tu versión de esta canción
  • Tutorial
    HD
    Como tocar Primavera 0 (Soda stereo)
    16:44

Letra de Primavera 0
Fluorescente azul,
Luz que baña mis sentidos,
Donde todo empiece a ser real.
Siempre vuelve a dar
Nuevas chances, una vuelta mas
Entera...
Nena tal vez fui
Un sueño de otro,
Un mundo incierto,
La verdad es que nadie
Vive sin amor
Y ahora estoy aqui,
Temblando fragil en la multitud (! y que multitud!!!)
Espero......
Primavera 0
Primavero 0
El avion se va
Recuerdos del futuro juntos
Goles suenan a la distancia
Ah, ah, ah, ah, ah,
Te espero..........
(Hasta el final con esto acordes: LA5 SIb5 DO5 SIb5)
Ah, ah, ah. ah, ah, ah,
Primavera 0
Primavera 0
Primavera 0
Primavera 0...............
Ojala les salga y espero que les guste......




[Primavera 0 chords][Primavera 0 cifra]
© LaCuerda.net · aviso legal · privacidad · es · en · pt · contacto