Acordes de Guitarra » R »la Renga » Un tiempo fuera de casa (Tab)

Un tiempo fuera de casa
la Renga

Letras, Acordes y Tabs para Guitarra, Bajo y Ukulele

  •       D            A             G
    Lo dejaste y buscaste otro destino
          D         A                 G
    caminaste y nunca encontraste el mio
          D           A            G
    no supiste enfrentar la realidad
           D            A          G
    y los dias te hicieron comprender
    
    que no era asi nena, no...
    
    Solo viola 1
    *bajar la cuerda, sin tocar con la púa
    ** slide
    E|---------------------------------------------------------------|
    A|---------------------------------------------------------------|
    D|-------------------------------------------------------9----9--|
    G|9(11)-----(11)--9(11)--9(11)-----(11)-*9(11)--9(11)-9-7--7-7---|
    B|------10--------10-----10-----10-------------------------------|
    E|---------------------------------------------------------------|
    
  •       D             A             G
    lo dejaste y ahora estas arrepentido
    D             A                 G
    caminate y nunca encontraste el mio
    D                A             G
    no supiste enfrentar la realidad
    D             A                 G
    y los dias te hicieron comprender
    
    que no era asi nena, no...
    
    1)----------------------------------------------------------------|
    2)--------^^^-----11-------------------------10(11)p8-------------|
    3)-10^...-^^^--10------...-10-10(11)p8...-------------10p8--------|
    4)----------------------------------------------------------------|
    5)----------------------------------------------------------------|
    6)----------------------------------------------------------------|
    
    1)----------------------------------------------------------------|
    2)-----------------12^...-12p10h12p10---14^14p12h14p12------------|
    
  • +
    ¡Colabora con nosotros!
    Envíanos tu versión de esta canción

Letra de Un tiempo fuera de casa
Lo dejaste y buscaste otro destino
caminaste y nunca encontraste el mio
no supiste enfrentar la realidad
y los dias te hicieron comprender
que no era asi nena, no...
*bajar la cuerda, sin tocar con la púa
** slide
Recordaste y ahora estas arrepentida
y volves pero no dejas de lado
las cosas que aprendiste alla afuera
y quizás hoy te vuelvas a marchar
Recordaste y ahora estas arrepentida
y volves pero no dejas de lado
las cosas que aprendiste alla afuera
y quizás hoy te vuelvas a marchar
Pero ya con un poco más
de camino recorrido por vos




[Un tiempo fuera de casa chords][Un tiempo fuera de casa cifra]
© LaCuerda.net · aviso legal · privacidad · es · en · pt · contacto
DINAMICO