Acordes de Guitarra » R »la Renga » Reite (Tab)

Reite
la Renga

Letras, Acordes y Tabs para Guitarra, Bajo y Ukulele

  • |------------|---------------|------------|---------------|
    |------------|---------------|------------|---------------|
    |------------|---------------|------------|---------------|
    |------------|---------------|------------|---------------|
    |----------5-|---------5*-7*-|----------5-|---------5*-7*-|
    |-3-4-5-5----|-3-4-5-5-------|-3-4-5-5----|-3-4-5-5-------|
    
    *el 5 no estoy seguro que lo toque,y en el 7 pueden meter
    alguna variacion que no se escucha bien lo que hace.
    Haganla con una distorcion bien pesada y podrida.
    
    TEMA:
    (hace una mescla de Am con la intro,no tiene algo
    fijo que se toca,improvisen)
    
    Am
    Reite, no pares de reir, es tu oportunidad 
    Y aunque Pienses que te reis de todo vos reite igual 
    Reite, nunca pares de reir que tu risa es fatal 
    Por eso que castran a la vida del instinto natural 
    
  • |----------|---------------|----------|----------------|
    |----------|---------------|----------|----------------|
    |----------|---------------|----------|----------------|
    |----------|---------------|----------|----------------| X4
    |----------|----------3-5v-|----------|-----------7-5v-|
    |-0-3-4-5--|-0-3-4-5-5-----|-0-3-4-5--|-0-3-4-5-5------|
    
    Reíte  no pares de reir     es tu oportunidad
    |------------------------------------------------------|
    |----5b---------------------------------------------10-|
    |----5b--------/5h7p5----------------------/8h9p8-9-9--|
    |--------------------7p5h7-----------------------------|
    |------------------------------------------------------|
    |------------------------------------------------------|
    y aunque pienses que te reis de todo vos reite igual
    reite, nunca pares de reir, que tu risa es fatal
    paraesos que castran a la vida del instinto natural
    
    C            D
    Y que en tu risa viva el arte
    
  • Bueno gente…aca les tengo este terrible solo q suena MUY BIEN.
    No es facil de sacarlo,les recomiendo q lo saquen de a partes.
    
    
    
    
    |-----------------------------------------------------------------
    |--13p11p10h12p11p10----13p11p10h12p11p10-----13p11p10h12p11p10---
    |-----------------------------------------------------------------
    |-----------------------------------------------------------------
    |-----------------------------------------------------------------
    |-----------------------------------------------------------------
    
    ------------------------------------------------------------------
    ---13p11p10h12p11p10---13p11p10h12p11p10---13p11p10h12p11p10------
    ------------------------------------------------------------------
    ------------------------------------------------------------------
    ------------------------------------------------------------------
    ------------------------------------------------------------------
    
    ----------------------------------------------------12---------
  • +
    ¡Colabora con nosotros!
    Envíanos tu versión de esta canción

Letra de Reite
*el 5 no estoy seguro que lo toque,y en el 7 pueden meter
alguna variacion que no se escucha bien lo que hace.
Haganla con una distorcion bien pesada y podrida.
TEMA:
(hace una mescla de Am con la intro,no tiene algo
fijo que se toca,improvisen)
Reite, no pares de reir, es tu oportunidad
Y aunque Pienses que te reis de todo vos reite igual
Reite, nunca pares de reir que tu risa es fatal
Por eso que castran a la vida del instinto natural
Y que en tu risa viva el arte
De que rian los demas
Estar feliz no es pecado
Ni un trastorno mental
Reite, reite hasta morir, aunque te quieran borrar
toda la cosquilla de tu alma que busca la libertad
Reite, con vos me quiero reir es nuestra oportunidad
Y aunque venga el aguafiesta nos vamos a reir igual Ja!
Y no se obtiene con riqueza,
Ni con poder ni aun siendo capaz
Esos no tienen risa y se divierten
Amargando nuestro carnaval
Ya esta,es muy facil el tema,nada mas que no tiene nada
fijo para tocar...Chau suerte y aguante la renga
www.geocities.com/bailando_en_1_pata




[Reite chords][Reite cifra]
© LaCuerda.net · aviso legal · privacidad · es · en · pt · contacto