Acordes de Guitarra » R »la Renga » El ojo del huracán (Tab)

El ojo del huracán
la Renga

Letras, Notas, Punteos, Tablaturas y Acordes de Guitarra (Tabs & Chords)

  • Letra y Acordes
    *  A5 - C#5 - D5 
    
    ACORDES:
    
    A5  (577xxx)
    C#5 (x466xx)
    D5  (x577xx)
    
    Saludos, y que les sirva esta corrección...todo lo demás esta joya.
    
    
    Intro: (D   A B) x 4
           F#  G  B  A
    
    
    D             B                    
      Cada cual pisa como quiere
    G               D
      y tiene su razón de ser
    D                     B   
    
  • Letra y Acordes
    intro: RE SI x4 FA# SOL SI LA
    
    
    RE          SI            SOL            RE
    cada cual pisa como quiere y tiene su razon de ser
    RE             SI                   SOL             RE
    se sabe que el que carga con piedras dificil que se pueda mover
    LA                                DO# 
    hazlas rodar los caminos tierras, son lo mejor que tendran
    LA
    cada cual pisa como quiere, pero
    
    RE        SI
                 por mas que quieras,
    RE        SI
                 dificil es llegar,
    RE        SI
                 no existe ciencia, 
    RE        SI
                 mucho puede pesar,         fa# sol si la
    
  • Tablatura
                 RE  LA  SI
    e|-------------------------|-----------------------------
    B|-------------------------|-----------------------------
    G|-------------2-2---------|-----------------------------
    D|-------------0-0-2-2-4---|4-4-4------------------------
    A|-2p1p0-2p1p0-----0-0-2---|2-2-2--2p1p0-2p1p0-2p1p0-----
    E|-------------------------|-----------------------------
    
    Repite 4 veces
    
    luego Fa# y Sol (son seguillas las 2)
    y despues de sol
    
    e|-----------------------------------------------
    B|----0------------------------------------------
    G|----0------------------------------------------
    D|-------------2p0--------4--2-----4-6-7---------
    A|-4-------2-------2p0----2--0-----2-4-5---------
    E|-2-------3-------------------------------------
    
    
  • Tablatura
                 RE  LA  SI
    e|-----------------------|-------------------------
    B|-----------------------|-------------------------
    G|-----------2-2---------|--------------------------
    D|-----------0-0-2-2-4---|4-4-4--4-(3)-(2)-4-(3)-(2)
    A|-5-(4)-(2)-----0-0-2---|2-2-2---------------------
    E|-----------------------|------------------------
    
    Repite 3 veces
    
    luego Fa# y Sol (son seguillas las 2)
    y despues de sol
    
    e|------------------------------------------------
    B|------------------------------------------------
    G|-----------------------------------------------
    D|--2-0-----------4-2---2-4-6-7-----------------
    A|------2-0-2-----2-0---0-2-4-5-----------------
    E|-----------------------------------------------
    
    
  • Tablatura
    Esta bastante bien sacado, cualquier cosa, lo tengo
    en guitar pro, despues pongo el solo de ''Cuando estes aca''.
    Mientras lo tocan vallan escuchandolo asi es mas facil.
    
    Slide: s
    Bend (estirar): ^ ½ semitono
    Bend (estirar): ^^ 1 semitono
    PreBend: ^=
    Vibrato: ~
    
    E|-------------------------------------------3---------------
    B|-----------------------------------3~--6---6-5^-5^-5^=--3--
    G|-4-2---2-4-2---2-4-2---2-4-2-------------------------------
    D|------2--------2--------2----------------------------------
    A|-----------------------------------------------------------
    E|-----------------------------------------------------------
    
    E|------------------------------------------------------3-5s7~-7-5--------5--
    B|--------0-3--------------------------5^=---3-3~-5--------------7-5-7-------
    G|--4-2-------4-2-----------4-2----------------------------------------------
    D|-------------------4~-4-2------4-2-----------------------------------------
    A|----------------------------
  • Tab p/Bajo
    Bueno, esta cancion la saque de una version en vivo porque
    se me rayo el cd, pero esa es otra historia...asique es seguro
    que tiene algun que otro error, por eso les pido piedad jeje...
    Pero aclaro que lo adapte para que quede masomenos con la trans.
    de guitarra que habia. Aca va...
    
    INTRO:
    1|--------------------------------|
    2|--------------------------------| X 3
    3|--5-5-----------10h9h7-10h9h7---|
    4|------5-5-7-7-7-----------------|
    
    1|-------------------------------------------|
    2|-------------------------------------------|
    3|------------------2-0-22-22-0---0-2-4-5----|
    4|-2--2-2--3--3-3----------------------------|
    
    VERSO:
    1|--------------------------------------------------|
    2|--------------------------------------------------| X 2
    3|-5--5-5-0-5-0--2--2-2-0-2-0------------3-5--5-5---|
    4|-----------------------------3--3-3--5----------5-|
    
    PRE-ESTRIBILLO:
    1|-------------------------------------------------|
    2|-------------------------------------------------|
    3|------------------
  • +
    ¡Colabora con nosotros!
    Envíanos tu versión de esta canción

Letra de El ojo del huracán
cada cual pisa como quiere y tiene su razon de ser
se sabe que el que carga con piedras dificil que se pueda mover
hazlas rodar los caminos tierras, son lo mejor que tendran
cada cual pisa como quiere, pero
por mas que quieras,
dificil es llegar,
no existe ciencia,
mucho puede pesar, fa# sol si la
quisiera que por fin tu ave, la tormenta pudiera cruzar
quisiera ver el sol mañana pero esa sombra sigue ahi detras
echa a volar los caminos del viento, son lo mejor que tendras
por mas que quieras,
dificil es llegar,
no existe ciencia,
mucho puede pesar, fa# sol si
pueda ser que subido a ese cielo conozcas el ojo del huracan
y querras aferrarte a las piedras pero nada te podra sujetar
cada cual pisa como quiere solo tus alas precisa el intento.
por mas que quieras
dificil es llegar
no existe ciencia
mucho puede pesar
pronto el alto solo.

Videos de El ojo del huracán
[ver más videos]

[ver todas las canciones]


© LaCuerda.net · Aviso Legal · Privacidad