Acordes de Guitarra » R »la Renga » El juicio del ganzo (Tab)

El juicio del ganzo
la Renga

Letras, Acordes y Tabs para Guitarra, Bajo y Ukulele

  • Intro:SOL-MIm-RE (x2)
    DO-SOL-DO-RE
    
    SOL         MIm             RE
    De tanto andar por la cornisa
    SOL         MIm           RE
    tal vez un día pueda caer.
    DO
    De tanto confiarme
           SOL
    de mi suerte y mis conquistas,
                   DO
    en la percha de un bar
               RE
    terminé después.
    
    SOL        MIm                RE
    De no aceptar el oficio de santo,
    SOL       MIm       RE
    y por reírme de tu tonta canción de amor,
    
  •     G        Em                 D
    
    |---7--7--7-----------8-7-----|----------------------|
    |---8--8---8--------8-----8---|-8--88----------------|
    |---7--7----7-----7---------7-|-9--99---------7-7-9-7|
    |---------------0-------------|-7--77---7--7h9-------|
    |-----------------------------|----------------------|
    |-----------------------------|----------------------|
    
       G         Em                 D
    
    |--7--7--7-----------8-7-----|-------------------------|
    |--8--8---8--------8-----8---|-8--88---------9---------|
    |--7--7----7-----7---------7-|-9--99---9r--7---7-7h9-7-|
    |--------------0-------------|-7--77-------------------|
    |----------------------------|-------------------------|
    |----------------------------|-------------------------|
    
       C                     G                      C                 D
    
    
  • hola.. !
    bueno esta es mi 2da transcripcion... esta sacado de bailando en una pata
    y bueno masomenos es asi... lo subo pq el otro solo q taba en la pag estaba
    medio incompleto
    
    
    
    
    E||-------------------|----------------------|------------------------|
    B||-------------------|----------------------|------------------------|
    G||-----------12h-14--|--14b---------14r-12--|--14--14b-------14r-12--|
    D||-------------------|----------------------|------------------------|
    A||-------------------|----------------------|------------------------|
    E||-------------------|----------------------|------------------------|
    
    
    
    ------------------------|-----------8h-10--|--10b----10--8--7--10--10p8p7-|
    ------------------------|------------------|------------------------------|
    --14p-12--11--9~-7------|------------------|------------------------------|
    ------------------------|------------------|------------------------------|
    ------------------------|------------------|------------------------------|
    -----
  •            SOL                       RE                        SOL
    e|--7--|-7---------8p7-----|--5--|-------------------|--7--|-7---------8p7-----|----------------|
    B|--8--|---8-----8-----8---|--7--|-------------------|--8--|---8-----8-----8---|----------------|
    G|--7--|-----7-9---------7-|--7--|-------------------|--7--|-----7-9---------7-|-9b-9-7--7-9-7--|
    D|-----|-------------------|--7--|-----7-7p9-7--9-7--|-----|-------------------|----------------|
    A|-----|-------------------|-----|-7-9---------------|-----|-------------------|----------------|
    E|-----|-------------------|-----|-------------------|-----|-------------------|----------------|
            DO                           SOL                     DO                 RE           SOL
    e|-12--|-12-12--15-12-13-12------|--7-7-7-7-7-7-7-7-7---|--3-3-3-3-3-3-3--|--555555-55-55--|-7--|
    B|-13--|--------------------13---|--8-8-8-8-8-8-8-8-8---|--5-5-5-5-5-5-5--|--777777-77-77--|-8--|
    G|-12--|-------------------------|--7-7-7-7-7-7-7-7-7-7-|--5-5-5-5-5-5-5--|--777777-77-77--|-7--|
    D|-----|-------------------------|----------------------|--5-5-5-5-5-5-5--|--777777-77-77--|----|
    A|-----|-------------------------|----------------------|-----------------|----------------|----|
    E|-----|-------------------------|----------------------|-----------------|----------------|----|
    
    VERSO 1:
       SOL    RE       RIFF1           SOL   RE        RIFF2        DO   SOL      DO             RE           RIFF1
    e|--7--|--5--|-------------------|--7--|--5--|----------------|-12-|--7--|--33333333--|--555555-55-55--|---------|
    B|--8--|--7--|-------------------|--8--|--7--|----------------|-13-|--8--|--55555555--|--777777-77-77--|---------|
    G|--7--|--7--|-------------------|--7--|--7--|-9b-9-7--7-9-7--|-12-|--7--|--55555555--|--777777-77-77--|--RIFF1--|
    
  • intro
    G|--------------------|
    D|--------------------|
    A|-------5------------|
    E|-3--0---------------|
    
    G|--------------------|
    D|--------------------|
    A|------55555503555H75|
    E|-3--0---------------|
    
    G|--------------------|
    D|--------------------|
    A|--------------------|
    E|578-88-578-88-583788|
    
    G|--------------------|
    D|--------------------|
    A|--------------------|
    E|3-3788-578-88-578-88|
    
    G|---------------------|
    D|---------------------|
    A|--5555555555H75-55---|
    E|58-------------------|
    
           de tanto andar por la cornisa
    G|----------------------------------|
    D|----------------------------------|
    A|--------------35-5-55553H53H5-----|
    E|53-3-3320-0-00--------------------|
    
      tal vez un dia pueda caeeeer
    
    G|----------------------------------|
    D|----------------------------------|
    A|--------------35-5-55553H53H5-----|
    E|53-3-3320-0-00--------------------|
    
       de tanto confiarme de mi suerte
    
    G|--------------------|
    D|--------------------|
    A|--------------------|
    E|578-88-578-88-583788
  • +
    ¡Colabora con nosotros!
    Envíanos tu versión de esta canción

Letra de El juicio del ganzo
De tanto andar por la cornisa
tal vez un día pueda caer.
De tanto confiarme
de mi suerte y mis conquistas,
en la percha de un bar
terminé después.
De no aceptar el oficio de santo,
y por reírme de tu tonta canción de amor,
de no transar ni con el cielo y el infierno,
tal vez confisquen mi corazón.
Y quién compartirá mi desconsuelo -Riff-
y mi destierro de civilización. -Riff-
Quizás muera odiándote y entendiéndote a la vez, -Riff-
que de tanto que pude haber hecho por vos,
entregues mi alma, al mejor postor.
De tanto jugar a la cigarra,
tal vez me sorprende el invierno,
de tanto fiarme de tener
alguien siempre a mano,
sin pan y sin torta, la fiesta termine tal vez.
Y uno recoge lo que siembra, dicen,
y es peligroso el barco sin timón,
pero quien ponga manos en este juicio,
nunca sabrá que satisfecho el ganso murió.
Y quién compartirá mi desconsuelo
y mi destierro de civilización.
Quizás muera odiándote y entendiéndote a la vez,
que de tanto que pude haber hecho por vos,
entregues mi alma, al mejor postor.




[El juicio del ganzo chords][El juicio del ganzo cifra]
© LaCuerda.net · aviso legal · privacidad · es · en · pt · contacto