Acordes de Guitarra » R »la Renga » Almohada de piedra (Tab)

Almohada de piedra
la Renga

Letras, Notas, Punteos, Tablaturas y Acordes de Guitarra (Tabs & Chords)

  • Letra y Acordes
    (A5 B5 G5) X8
    
    A5                         B5 G5
      Corranse qe no puedo ver
    A5                        B5 G5
      el sueño como me espera
    A5                                B5 G5
      detras de un muro de contencion
    A5                               B5 G5
      con la sonrisa del alma muerta
    
    
    como una fiera sangrando estoy
    en un selva de mentes viejas
    habra tambien qe saber soñar
    sobre una almohada de piedra
    almohada de piedra
    
    A|------0-0-2-2-3-3--| X8
    E|--2-2--------------|
    
  • Letra y Acordes
    [LA-SI-SOL] X8
    
    LA                      SI-SOL-LA
    Corranse que no puedo ver
    LA                      SI-SOL-LA
    el sueño como me espera
    LA                      SI-SOL-LA
    detras de un muri de contencion
    LA                      SI-SOL-LA
    con la sonrisa de alma muerta.
    
    [LA-SI-SOL] X4
    
    LA                            SI-SOL-LA
    Como una fiera sangrando estoy
    LA                            SI-SOL-LA
    es una selva de mentes viejas
    LA                            SI-SOL-LA
    habra tambien que saber soñar
    LA                            SI-SOL-LA
    
  • Tablatura
    |-----------------------|
    |-----------------------|
    |-2--4-----2--4---------|
    |-2--4-----2--4---------|
    |-0--2-----0--2---------|
    |------3~-------33333333|
    
    Riff 2
    |------|
    |------|
    |------|
    |------|
    |--2---|
    |---3~-|
    
    INTRO:
    Riff 1    x4
    
    1)
    A5                     Riff 2
    
  • Tab p/Bajo
    Intro
    G|----------------------|
    D|----------------------|
    A|-5--5--7--3-----------|
    E|----------------------|
    
    Riff1
    G|--------------------|
    D|--------------------|
    A|--5*---5--7--3------|
    E|--------------------|
    *queda sonando
    
    Riff2
    G|--------------------|
    D|---------2-2-3-4----|
    A|-2-2-5-5------------|
    E|--------------------|
    
    Riff3
    G|----------------------------------------|
    D|----------------------------------------|
    A|-55555555--77777777--88888888--55555555-|
    E|----------------------------------------|
    
    G|----------------------------------------|
    D|----------------------------------------|
    A|-55555555--77777777--88888888--99999999-|
    E|----------------------------------------|
    
    Intro x8
    
    Riff1 x4
    
    Intro x4
    
    Riff1 x4
    
    Riff2 x8
    
    Riff3 x4
    
    Intro x4
    
    Riff1 x4
    
    Riff2 x8
    
    Riff3 x4
    
    Riff2 x8
    
    La guitarra sola
    
    Y después va haciendo junto con la batería
    G|--------------------|
    D|--------------------|
    A|--5-5----5-5--------|
    E|--------------------|
    
    
    Intro x4
    
    Riff3 x4
    
    Riff2 x4
    
    Intro x
  • +
    ¡Colabora con nosotros!
    Envíanos tu versión de esta canción

Letra de Almohada de piedra
Corranse qe no puedo ver
el sueño como me espera
detras de un muro de contencion
con la sonrisa del alma muerta
como una fiera sangrando estoy
en un selva de mentes viejas
habra tambien qe saber soñar
sobre una almohada de piedra
almohada de piedra
ESTRIBILLO = los E5 son así: G|--9-
D|--9-
A|--7-
ahora qe lejos quiero llegar
nunca nada pudo estar tan cerca
a cielo abierto quizo mostrar
la noche su pensamiento
en un reflejo del mas alla
quisiera ver qe despierto
y en el dolor por existir
se habrá de romper el tiempo. D5|--11-
Muestra el mundo su condicion
y yo siempre saltando el cerco
corranse qe no puedo ver
el sueño como lo espero.
repite el riff que toca antes del estribillo
Ahora qe lejos quiero llegar
nunca nada pudo estar tan cerca
a cielo abierto quizo mostrar
la noche su pensamiento
en un reflejo del mas alla
quisiera ver qe despierto
y en el dolor por existir
se habra de romper el tiempo.
repite el riff y la intro varias veces
y toca la primer estrofa con los acordes del estribillo
Final: Intro X4 y A5
Bueno, puede ser así, capáz que tiene algunos errores.



© LaCuerda.net · Aviso Legal · Privacidad