Acordes de Guitarra » R »la Renga » 2+2=3 (Tab)

2+2=3
la Renga

Letras, Notas, Punteos, Tablaturas y Acordes de Guitarra (Tabs & Chords)

  • Letra y Acordes
       DO#                DO#7
    si dos mas dos diera tres
          FA               LA#m7
    este mundo no seria como es
          FA#                   DO#    RE# RE RE# 
    la cuenta no daría lo que tengo en tal caso
                   SOL#
    el cuatro sería rengo
    
    
    si dos mas dos diera tres
    este mundo no lo verias como es
    y en la una oportuna de los lados al cuadrado
    le faltaria un costado
    
    
    si dos mas dos diera tres
    es seguro que calmaria un poco el stress
    habia un mundo menos de enfraccion
    y el almacen un pero a mi favor
    
  • Letra y Acordes
    Intro: D C#m / C#m D E / F5 F#5 G5 G#5 A
    
    
    A7                    D
    Si dos más dos diera tres
          F#               Bm
    este mundo no seria como es
          G                    D            E7 D7 E7 
    la cuenta no daría lo que tengo en tal caso
                   A        A7 A         
    el cuatro sería rengo
    
    
    Si dos más dos diera tres
    este mundo no lo verías como hoy lo ves
    y en la suma inoportuna de los lados al cuadrado
    le faltaría un costado
    
    
    Si dos más dos diera tres
    
  • Letra y Acordes
    intro:D C# G D7 E7 A7 (esto se hace arpejiando)
    
    
    
                      D
    Si dos más dos diera tres
          F#               Bm
    este mundo no seria como es
          G                    D            E7 D7 E7
    la cuenta no daría lo que tengo en tal caso
                   A        A7 A
    el cuatro sería rengo
    
    
    Si dos más dos diera tres
    este mundo no lo verías como hoy lo ves
    y en la suma inoportuna de los lados al cuadrado
    le faltaría un costado
    
    
    
  • Tablatura
            SOL              RE
    y que distinta seria la vida
             FA#                  SIm
    si a aca suma le haria un sustraendo
            SOL                 RE
    y que dichosa seria nuestra suerte
               FA#             SIm
    que los cornudos serian unicornios
    
    1[-----3-----------------------------------------3------5------10-------3------------------------------------------------
    2[-----3--3--5--3--6-----------------------------3------5------10-------3------------------5-6---------------------------
    3[-----4--4--4--4--4---------11--9---8-----------4------6------11-------4------------------4-4---------11-------9---8----
    4[-----5--3--3--3--3---------12-10---9-----------5------7------12-------5------------------3-3---------12------10---9----
    5[-----5---------------------12-10---9-----------5------7------12-------5------------------------------12------10---9----
    6[-----3---------------------10--8---7-----------3------5------10-------3------------------------------10-------8---7----
       y A MI me faltaria un dia me..e..nos   en el alta en el manicomio  a mi... me faltaria....   un dia meeee...ee..nos
    
            SOL     LA     RE
    para el alta en el manicomio
    
    
  • Tablatura
    e|----------------------------------------------------------------------------
    B|---------------------------------(3)---5-5-5-(3)------3-5-5-(5)---3-5-5-(5)-
    G|-2-2-4-4-2-2--------2-2-4-4-2-2-------------------2-4-----------------------
    D|-------------(2)------------------------------------------------------------
    A|----------------------------------------------------------------------------
    E|----------------------------------------------------------------------------
    
    -------------------(10)----12-12-10-12-(10)-----------------10-10------------
    10-12-10-12-10-12---------------------(12)--10-10-12-------12-(10)--12-10-(5)
    ------------------------------------------------------------------------------
    ------------------------------------------------------------------------------
    ------------------------------------------------------------------------------
    ------------------------------------------------------------------------------
    
    e|--------------------------------------------------
    B|-----3-5-5-(5)--3-5-5--5-5-5--5-5-5--5-5-5--5-10--
    G|-2-4----------------------------------------------
    D|--------------------------------------------------
    A|--------------------------------------------------
    E|--------------------------------------------------
    
  • Tab p/Bajo
    Version en estudio, de “a donde me lleva la vida”.
    
    INTRO:
    G-------------------------------------
    D-----------------------------------7-
    A-5-55-4-44------7-5---4---7-8-9-10---
    E-----------3-33----------------------
    
    TEMA:
    Si dos más dos diera
      tres..
    G------------------------------------------------
    D---------------2-4-5-4-2------------------------ x4
    A-5-55------2-5-----------4-5—-7—-5-7------------
    E------2-22-----------------------------5-55-5555-
    
    SOLO DE SAXO:
    G------------------------------------------------
    D---------------2-4-5-4-2------------------------
    A-5-55------2-5-----------4-5—55-7—-5-7----------
    E------2-22----------------------------5-55-5555-
    
    G----------------------------
    D----------------------------
    A---------5-55-------9-5-4-2-
    E---3-33--------2-22---------
    
    G--------------------------------
    D--------------------------------
    A------55-44-2-----------------5-
    E-3-33---------3333333355555555--
    
    Y que
    distinta ..
    G----------------------------
    D--------------
  • +
    ¡Colabora con nosotros!
    Envíanos tu versión de esta canción

Letra de 2+2=3
si dos mas dos diera tres
este mundo no seria como es
la cuenta no daría lo que tengo en tal caso
el cuatro sería rengo
si dos mas dos diera tres
este mundo no lo verias como es
y en la una oportuna de los lados al cuadrado
le faltaria un costado
si dos mas dos diera tres
es seguro que calmaria un poco el stress
habia un mundo menos de enfraccion
y el almacen un pero a mi favor
si dos mas dos diera tres
este blues no seria como es no o o...
en vez de dos por cuatro
seria cuatro por tres
o tres por tres o dos por tres
¿dos por tres? (llueve)
y que distinta seria la vida
si a cada suma le haria un sustraendo
y que dichosa seria nuestra muerte
que los cornudos serian unicornios
y a mi me faltaria un dia menos
para el alta en el manicomio



© LaCuerda.net · Aviso Legal · Privacidad