Acordes de Guitarra » P »Patricio Rey y sus Redonditos de Ricota » Vencedores Vencidos (Tab)

Vencedores Vencidos
Patricio Rey y sus Redonditos de Ricota

Letras, Acordes y Tabs para Guitarra, Bajo y Ukulele

  • REm
    Y ahora tiro yo, porque me toca
    
    en este tiempo de plumaje blanco
    SOLm
    Un mudo con tu voz y un ciego como yo
    
    Vencedores vencidos!
    
    REm             DO
    Te has fugado ! me hago humo!
    SIb          DO
    den la alarma!
    REm                      DO
    Ensayo general para la farsa actual
    SIb          DO
    teatro antidisturbio
    
    REm
    Se rompe loca, la anatomía
    
  • (Intro) [D C A# C]x2
    
    Dm               Am
    Y ahora tiro yo, porque me toca
    Dm
    en este tiempo de plumaje blanco
    Gm
    Un mudo con tu voz y un ciego como yo
    Vencedores vencidos!
    
    Dm             C
    Te has fugado ! me hago humo!
    Bb          C
    den la alarma!
    Dm                      C
    Ensayo general para la farsa actual
    Bb             C
    teatro antidisturbio
    
    Dm                Am
    
  •      RE5             DO5              SIb5               DO (Punteo1)
    E|---------------|---------------|----------------|-----------------------|
    B|---------------|---------------|----------------|-----------------------| 
    G|---------7-7---|---------5-5---|----------3-3---|--2-------2------------| X1
    D|-7-7-7-------7-|-5-5-5-------5-|-3-3-3--------3-|----5-3-5---3-b-/------|
    A|-5-5---5-------|-3-3---3-------|-1-1---1--------|-------------------5---|
    E|---------------|---------------|----------------|-----------------------|
    
    *'Semilla' Bucciarelli (BAJO)
       RE               DO               SIb                DO
    G|---------------|---------------|----------------|-----------------------|
    D|-----7---------|-----5---------|-----3----------|--7-5---5-7------------|X1
    A|-5-5-----------|-3-3-----------|-1-1------------|------8-----8---/--5---|
    E|---------------|---------------|----------------|-----------------------|
    
    
    *'Skay' Bellinson (B)
         RE5             DO5              SIb5               DO (Punteo2)
    E|---------------|---------------|----------------|------------------------|
    B|---------------|---------------|----------------|------------------------|
    
  • e|---------------|---------------|---------------|-------------|
    B|---------------|---------------|---------------|-------------|
    G|--------7-7----|--------5-5----|--------3-3----|-2-0---0-2---|
    D|-----7-------7-|-----5-------5-|-----3-------3-|-----3-----3-|
    A|-5-5-----------|-3-3-----------|-1-1-----------|-------------|
    E|---------------|---------------|---------------|-------------|
     
    e|---------------|---------------|---------------|-------------|
    B|---------------|---------------|---------------|-------------|
    G|--------7-7----|--------5-5----|--------3-3----|-------------|
    D|-----7-------7-|-----5-------5-|-----3-------3-|-3-2-0-2--3v-|
    A|-5-5-----------|-3-3-----------|-1-1-----------|-------------|
    E|---------------|---------------|---------------|-------------|
     
    Riff 1
    e|--------------|------------|--------------|------------|
    B|--------------|------------|--------------|------------|
    G|--------------|------------|--------------|------------|
    D|-0-2-3-2------|-0-2-3-2----|-0-2-3-2------|-0-2-3-2----|
    A|----------3-0-|----------3-|----------3-0-|----------3-|
    
  • ( D5   C5   A#5 )
    
    E/-------------------
    B/-------------------
    G/--2-----------2----
    D/----5--3--5-----3--
    A/-------------------
    E/-------------------
    
    CON ARPEGIADO EN
    ( D5   C5   A#5 )
    
    E/--------------------
    B/--------------------
    G/--------------------
    D/--3--2--0--2--3--0--
    A/--------------------
    E/--------------------
    
    //////////////////////////////////////////////////
    
  • Intro
    G|---------------------------------------|
    D|---7---7---5---5---------7-5---5-7-----|
    A|-55--55--33--33----8---8-----8-----8-5-|
    E|-----------------66--66----------------|
    
     |--------------------------------------|
     |---7---7---5---5----------------------|
     |-55--55--33--33----8---8--8-7-5-7-8-5-|
     |-----------------66--66---------------|
    
    Verso
    G|-----------------------|x2 |-------|x4
    D|---2-3-2-3-----2-3-2---|   |-------|
    A|-5---------3-5-------3-|   |---3-5-|
    E|-----------------------|   |-3-----|
    
    Coro
    G|-------------------------|x2
    D|-------------------------|
    A|-5(x8)-3(x8)-------3(x8)-|
    E|-------------6(x8)-------|
    
    Verso
    G|-----------------------|x2 |-------|x4
    D|---2-3-2-3-----2-3-2---|   |-------|
    A|-5---------3-5-------3-|   |---3-5-|
    E|-----------------------|   |-3-----|
    
    Puente
    G|-----------------------------------|
    D|-----------------------------------|
    A|---------------4-5-6---------------|
    E|-5(x16)-3(x15)-------5(x16)-3(x15)-|
    
    
  • +
    ¡Colabora con nosotros!
    Envíanos tu versión de esta canción
  • Tutorial
    Como tocar Vencedores vencidos de Los redonditos de ricota en guitarra (tutaras.com.ar)
    17:48

Letra de Vencedores Vencidos
Y ahora tiro yo, porque me toca
en este tiempo de plumaje blanco
Un mudo con tu voz y un ciego como yo
Vencedores vencidos!
Te has fugado ! me hago humo!
den la alarma!
Ensayo general para la farsa actual
teatro antidisturbio
Se rompe loca, la anatomía
con el humor de los sobrevivientes
y un mudo con tu voz, y un ciego como yo
X2(LA SOL)
vencedores vencidos.
Leyendo diarios, en un baño turco
empañando Ray Bans, mascando un hueso
tu perro un perro cruel, con la costumbre de
No contentarse con los restos.
­Ovejero que descansa en manto negro!
Ensayo general para la farsa actual,
teatros antidisturbio.
En este rollo de, monos de polvo
hemos perdido el rastro, unos minutos
un par de monos mas unos terrícolas
vencedores vencidos.
­Buena suerte! y mas que suerte! sin alarma
Me voy corriendo a ver, que escribe en mi pared
la tribu de mi calle, .
la banda de mi calle.
la tribu de mi calle,......
la banda de mi calle.
la tribu de mi calle,......
UN SALUDO A TODO
EL ANTRO DE LA PERDICION GRACIAS
ESPAERO QUE LES GUSTE




[Vencedores Vencidos chords][Vencedores Vencidos cifra]
© LaCuerda.net · aviso legal · privacidad · es · en · pt · contacto