Acordes de Guitarra » P »Patricio Rey y sus Redonditos de Ricota » Un Pac-Man en el Savoy (Tab)

Un Pac-Man en el Savoy
Patricio Rey y sus Redonditos de Ricota

Letras, Notas, Punteos, Tablaturas y Acordes de Guitarra (Tabs & Chords)

  • Tablatura
        Dm                Gm                     Dm
      |-------------------------------------------------------------------10-10-|
      |-----------------------8-10-11--8-10-11--8-------------------------11-11-|
      |--7-9-10--7-9-10--7-------------------------7-9-10--7-9-10--10-----------|
      |---------------------------------------------------------------12--------|
      |-------------------------------------------------------------------------|
      |-------------------------------------------------------------------------|
    
    Mientras canta el indio.
    
      Dm                    Gm
      |----------------------------------------------------------------|
      |----------------------------------------------------------------|
      |----------------------------------------------------------------|
      |-------------5-5-3-5--------------------------------------------|
      |--5-5-3-5-------------5-5-3-5-------3---------------------------|
      |------------------------------3-5-6-----------------------------|
    
    Puente
      |----------------------------------------------------------------|
    
  • Tablatura
        Dm                   Gm                  Dm
      !-------------------------------------------------------------------7-7-!
      !-----------------------8-10-11--8-10-11--8-------------------------7-7-!
      !--7-9-10--7-9-10--7-------------------------7-9-10--7-9-10--7--5-7-----!
      !-----------------------------------------------------------------------!
      !-----------------------------------------------------------------------!
      !-----------------------------------------------------------------------!
    
    Mientras canta el indio.
    
        Dm             Gm
      !----------------------------------------------------------------!
      !----------------------------------------------------------------!
      !----------------------------------------------------------------!
      !-------------5-5-3-5--------------------------------------------!
      !--5-5-3-5-------------5-5-3-5-------3----------------------------!
      !------------------------------3-5-6-----------------------------!
    
    Puente
      !----------------------------------------------------------------!
    
  • Tablatura
        REm                   SOLm                  REm        SOLm 
    e|--------------------|----------------------|-------------------|------------|
    B|--------------------|--8^10^11--8^10^11-(8)|-------------------|--------8-8-|
    G|--7^9^10--7^9^10-(7)|----------------------|-7^9^10--7^9v10--7-|-5-7----7-7-|X2
    D|--------------------|----------------------|-------------------|------------|
    A|--------------------|----------------------|-------------------|------------|
    E|--------------------|----------------------|-------------------|------------|
    
    BAjO:  REm                  SOLm                  REm              SOl m
    G|--------------------|----------------------|-------------------|------------|
    D|--------------------|----------------------|-------------------|------------|X2
    A|--5-----7------8--0-|--------------------3-|-5-----7------8--0-|------------|
    E|--------------------|--3-----5--------6----|-------------------|/-3--5--3(1)|
    
    
    VERSO:
    
    RE               SOL
      Todo lo que está en mi nube
    RE               SOL
    
  • Tab p/Bajo
    Intro
    G|-------------------|x4
    D|---4-7-------------|
    A|-5-----5----2-5----|
    E|----------3-----3--|
    
    Verso
    G|------------------------|x2
    D|------------------------|
    A|-55-7------55-7---------|
    E|------33-5------3-4-5-6-|
    
    Puente
    G|-------------------|x2
    D|---4-7-------------|
    A|-5-----5----2-5----|
    E|----------3-----3--|
    
    Verso
    G|------------------------|x2
    D|------------------------|
    A|-55-7------55-7---------|
    E|------33-5------3-4-5-6-|
    
    Puente
    G|-------------------|x2
    D|---4-7-------------|
    A|-5-----5----2-5----|
    E|----------3-----3--|
    
    Coro
    G|-------------------------------|x2
    D|-------------------------------|
    A|-------------------------------|
    E|-1/5-535-55-3-5-1/3-313-33-1-3-|
    
    Puente
    G|-------------------|x2
    D|---4-7-------------|
    A|-5-----5----2-5----|
    E|----------3-----3--|
    
    Verso
    G|------------------------|x2
    D|------------------------|
    A|-55-7------55-7---------|
    E|------33-5------3-4-5-6-|
    
    Puente
    G|-------------------|x2
    
  • +
    ¡Colabora con nosotros!
    Envíanos tu versión de esta canción

Letra de Un Pac-Man en el Savoy
Mientras canta el indio.
Todo lo que está en mi nube
es nada más que tu sermón fatal.
Si tu grito es un ladrido,
y mi cuchillo es un rayo cruel.
Toda esa batería
de risa rubia, de barrio especial.
Las nuevas supersticiones
la bobera del nuevo pac-man.
Nuestro pac-man no es de nadie,
pero el mono es de él.
A veces gana, a veces pierde
(como todo jugador).
(Como en intro)
Un buen par de ojos de vidrio,
y tu mirada tiende a mejorar.
Las nuevas supersticiones
y todo el hambre del nuevo pac-man.
Todo lo que está en mi nube...
Toda esa batería...
Nuestro pac-man...



© LaCuerda.net · Aviso Legal · Privacidad