Acordes de Guitarra » P »Patricio Rey y sus Redonditos de Ricota » La Dicha no es una Cosa Alegre (Tab)

La Dicha no es una Cosa Alegre
Patricio Rey y sus Redonditos de Ricota

Letras, Acordes y Tabs para Guitarra, Bajo y Ukulele

  • SOL LA# SI#
               Una Rumbita Se armo...
    SOL FA DO
               Una Fea carcajada...
    SOL LA# SI#
               Incombustible no sos...
    SOL FA DO
               ¿Como bancas ese infierno?
    SOL LA# SI#                     SOL       FA        DO
               Soñas la hoguera donde siempre sos la leña...
    
    Estribillo:
    
            FA   DO   FA    DO   FA  DO       SOL
           ¿Cuanto... Tiempo... Mas vas a estar? (esclavizado asi)
    
            Refu..   giado en... tu sol e dad    (estas undido a fondo)
    
    
    
    
  • Intro: G Bb C - G F C
    
    
    G Bb C
           Una rumbita se armó,
     G F C
           una fea carcajada.
    G Bb C
           Incombustible no sos,
     G F C
           cómo bancás ese infierno?
    G Bb C
           Soñás la hoguera
                    G     F       C
    donde siempre sos la leña.
      F  C  F     C F   C     G
    Cuán-to tiem-po más vas a estar
    
    esclavizado así,
     F C  F    C    F  C     G
    
  • E|----------(3)|--|----------------------3-|----------------------3-|-----|------------------(3)|
    B|-1h3------(3)|--|----3-2-2-0--333-2-0--3-|----3-2-2-0--333-2--3-3-|-----|----3-2-0-0h2--3---3-|
    G|-----(0)--(0)|--|(0)-0-0-0-0--000-0-0----|(0)-0-0-0-0--000-0--0---|Riff2|(0)-0-0-0-0h0--0-0---|
    D|-------------|x2|------------------------|------------------------|-----|---------------------|
    A|-------------|--|------------------------|------------------------|-----|---------------------|
    E|-------------|--|------------------------|------------------------|-----|---------------------|  
    BAJO:
    sobre riff 1                    SOl (sobre los riff2,3 y 4)
    G|--------|----------------|--------------------------------||
    D|--------|----------------|--------------------------------||
    A|--------|----------------|--------------------------------||
    E|-(3)-(3)|1/3-1/3-1/3-1/3-|-3-3-3-3-3-3-3-3-3-3-3-3-3-3-3-3||
    
    
    PARTE 2 De la Intro:
    Guitarra:                                                 ___x3__
          FA    DO           SIb SOl    Punteo 1             |       |    Punteo 2
    E|-------|----------|--|--6--7---|-10-10-10-10----(10-)-|----|----|-------------------------|
    B|-------|----------|--|--6--8---|----------------(11b)-|----|----|-3-3---3-3---5-----------|
    G|-5-5-5-|(5)---555-|--|---------|-------------12-------|-FA-|-DO-|-3-3---3-3---5br-p3------|
    
  • Intro
    G|------------|------------------
    D|------------|-3h5-3h5-3h5-3h5--
    A|------------|------------------
    E|--3^----3^--|------------------
    
    G|-----------
    D|-----------
    A|-----------
    E|-333333333- (x66)
    
    G|---------------------
    D|-33---33---33--------
    A|----3----3----3--1--- X2
    E|-------------------3-
    
    Verso
    
    (E|-5s3--)
    
    G|------------5---5-----------5--5-|
    D|---5----5-----------5---3--------|
    A|----------33--33----------33-33--| X3
    E|-33---33----------3---1----------|
    
    Estribillo
    G|------------------
    D|-33--33--33-------
    A|---3---3---3--1--- X2
    E|----------------3-(estas hundido a fondo,a afondo...)
    
    Verso
    
    (E|-5s3--)
    
    G|------------5---5-----------5--5-|
    D|---5----5-----------5---3--------|
    A|----------33--33----------33-33--| X3
    E|-33---33----------3---1----------|
    
    
    Estribillo
    G|-----------------
    D|-33--33--33------
    A|---3---3---3-1--- X2
    E|---------------3-(...con tu tortura de tv, siempre asi...)
    
    
    G|------------
    D|------------
    A|-222-111----x4
    E|---------33-
    
    G|---------------
  • Intro
    G|------|---------------------
    D|---5--|--5--3s5-3s5-3s5-----
    A|------|---------------------
    E|--3---|-3-------------------
    
    G|-------------
    D|-------------
    A|------------- x2
    E|-333333333---
    
    G|-------------------
    D|-33---33---33------
    A|----3----3---3-1---
    E|-----------------3- x2
    
    verso
    G|--------5-5----------5-5-
    D|----5-5-----5---3s5------
    A|-------3-3----------3-3--
    E|-1s3-3-----3-3-1---------
    
    Estribillo
    G|-----------------
    D|-33--33--33------
    A|---3---3---3-1---
    E|---------------3-
    
    Verso 2 (despues de: con tu tortura de tv..)
    
    G|---------------      G|--------------------777---
    D|---------------      D|--2-------3---------------
    A|-14s222-1111---x3    A|------33------33s555---5--
    E|------------33-      E|-0--33---0--33------------
    
    Final
    
    A|-2221111------
    E|--------33---- x (fade out)
    
    La tablatura esta perfecta, no hay ni un error,
    porque todas las que hay estan mal. Escuchenla bien.
  • +
    ¡Colabora con nosotros!
    Envíanos tu versión de esta canción

Letra de La Dicha no es una Cosa Alegre
Una Rumbita Se armo...
Una Fea carcajada...
Incombustible no sos...
¿Como bancas ese infierno?
Soñas la hoguera donde siempre sos la leña...
Estribillo:
¿Cuanto... Tiempo... Mas vas a estar? (esclavizado asi)
Refu.. giado en... tu sol e dad (estas undido a fondo)
Estas tomando de mas...
Y estas tolerando todo...
lastimas tu corazón...
Porque ella te ha abandonado...
Quedaste mordiendo el aire solo y sin dolor...
Estribillo
¿Cuanto... Tiempo... Mas vas a estar? (esclavizado asi)
Refu.. giado en... tu sol e dad (con tu tortura de TV siempre así)
La mujercita que amas...
Ella sabe For Yudoka...
La da de mala Zulú...
Y combina tus Venenos...
Haciendoce La ingeniosa, odiosa, siempre infiel...
Estribillo
¿Cuanto... Tiempo... Mas vas a estar? (esclavizado asi)
Refu.. giado en... tu sol e dad (estas undido a fondo)
Mientras la vida se va...
Hay mientras la vida pasa...
Sin darte cuenta ahí estas...
Con tu cara de colgado...
Tu angel guardian es de todos el mas tonto que hay...
Estribillo
¿Cuanto... Tiempo... Mas vas a estar? (esclavizado asi)
Refu.. giado en... tu sol e dad (con tu tortura de TV siempre Así)
Es Facil. tocar todos los acordes con sejilla...NOTA: Si# es Do
Los Riff Ya los voy a publicar... Pero estoy Seguro Que son Estos acordes.
Le agradesco a mi amigo Shorty que me ayudó con esta canción
si quieren contactarse con migo mi mail es renzovitaliti@hotmail.com




[La Dicha no es una Cosa Alegre chords][La Dicha no es una Cosa Alegre cifra]
© LaCuerda.net · aviso legal · privacidad · es · en · pt · contacto