Acordes de Guitarra » P »Patricio Rey y sus Redonditos de Ricota » Heroes del Whisky (Tab)

Heroes del Whisky
Patricio Rey y sus Redonditos de Ricota

Letras, Acordes y Tabs para Guitarra, Bajo y Ukulele

  • e------------------------------------3-3-2-------------|
    B-------------------------5-5--------3-3-2---------5-5-|
    G-----------2-2-2---------4-4----------------------4-4-|
    D-----------2-2-2--------------------------------------|
    A------2-4--------4-2-4-4--------2-4-------4-2-44------|
    E-2-4------------------------2-4-----------------------|
    
    Riff 2
    e------------------------------------3-3-2-0----|
    B-------------------------5-5--------3-3-2-0-2--|
    G-----------2-2-2---------4-4----------------1--|
    D-----------2-2-2-------------------------------|
    A------2-4--------4-2-4-4--------2-4------------|
    E-2-4------------------------2-4----------------|
    
    Riff 1
    Venderá algún milagro...
    nada de más...
    De vendedores entrenados...
    ¡No digo más!
    
  • +
    ¡Colabora con nosotros!
    Envíanos tu versión de esta canción

Letra de Heroes del Whisky
Riff 2
Riff 1
Venderá algún milagro...
nada de más...
De vendedores entrenados...
¡No digo más!
Y regresara a su cuidad en la caja de un camión...
Las estrellas ahi nomas, a su alcance frias
Tiene metido hasta la ceja un triste papel
en un menú muy complicado de Tony soirée
es lo que puede ofrecer
papeles tristes y sed
(y perdón para su lengua)
Bailará para la prensa...
No va a morir frente al 'DAKOTA'...
Un héroe del whisky más...
Y el final:
Ahora si queda el tema perfecto para tocarlo.
PIBES DE ZONA SUR Q BUSQUEN BANDA MANDENME UN MAIL A MATIMATOCQ@HOTMAIL.COM
Aguanten los Redondos!!!




[Heroes del Whisky chords][Heroes del Whisky cifra]
© LaCuerda.net · aviso legal · privacidad · es · en · pt · contacto
DINAMICO