Acordes de Guitarra » P »Patricio Rey y sus Redonditos de Ricota » El templo de momo (Tab)

El templo de momo
Patricio Rey y sus Redonditos de Ricota

Letras, Acordes y Tabs para Guitarra, Bajo y Ukulele

  • Intro:
    
    Riff 1(x 4) riff 2 [se repite todo 2 veces] 
    
    e---------------
    b---------------
    g---------------
    d--2-2--------2-
    a--0-0----0-1---
    E-------3-------
    
    Riff 2
    
    e-----3-1-0-
    b-----------
    g-----------
    d--2--------
    a--0--------
    E-----------
    
    A5
    Un galpon de luz, es el templo del momo
                                     Riff 2
    pura flor chillona y pura ambriaguez
    A5
    Santo fumador, de alla de La Plata
    Sali del letargo veni a desfilar
    
    Estribillo (como intro):
    
    Ademas, de tu sonrisa
    ademas, de tus dolores
    vas a copiar del templo del Momo,
    Un amor salvaje y al pulso del trip.
    
    A5
    Tambien hay pastel de ponsoña salada
                                Riff 2
    Licor y baladas para embaucar...
    A5
    aquel rubio que se tragaba cien lucas
    hace lo que puede para vivir
    
    Ademas, de tu sonrisa, 
    ademas, si!... de como mentir
    vas a copiar desde Momo-Sampler
    viejas medicinas para soñar...
    
    Solo con base en E5
    
    Estribillo
    
    Ademas, de tu sonrisa
    ademas, de tus
  • Intro:
    
    Guitarra 1
    Riff 1
    e|-------------|---------------|---------------|---------------|
    B|-------------|---------------|---------------|---------------|
    G|-------------|---------------|---------------|---------------|
    D|-------------|---------------|---------------|---------------|
    A|-(7)-----1-0-|-(7)-7-----1-0-|-(7)-7-----1-0—|-(7)-----------|
    E|-(5)-3-5-----|-(5)-5-3-5-----|-(5)-5-3-5-----|-(5)-0-3-0-3-0-|
    
                                   Guitarra 2      e|---------|
                                   Punteo 1        B|--8/6-5--|
                                                   G|---------|
                                                   D|---------|
                                                   A|---------|
                                                   E|---------|
    Guitarra 1
    Riff 2
    e|-------------|---------------|---------------|---------------|
    B|-------------|---------------|---------------|---------------|
    G|-------------|---------------|---------------|---------------|
    D|-------
  • Intro:
    
    Riff 1
    e|----------------|----------------|----------------|----------------|
    b|----------------|----------------|----------------|----------------|
    g|----------------|----------------|----------------|----------------|
    d|--7-----------5-|--7-----------5-|--7-----------5-|--7-------------|
    a|--7-------------|--7-------------|--7-------------|--7-------------|
    E|--5---3-5-6-----|--5---3-5-6-----|--5---3-5-6-----|--5---0-3-0-3-5-|
    
                                        Aca la otra     |----------------|
                                        guitarra        |------8/6-5-----|
                                        hace esto       |----------------|
                                                        |----------------|
                                                        |----------------|
                                                        |----------------|
    
    
    Riff 2
    e|----------------|----------------|----------------|----------------|
    b|----------------|----------------|----------------
  • El Templo De Momo
    Patricio Rey Y Sus Redonditos De Ricota
    Tabulado por: Paul Faget - polino2@adinet.com.uy
    
    
    Riff 1:              Riff 2:               Riff 3:
    e----------------    e----------------     e----------------
    b----------------    b----------------     b---------------- 
    g----------------    g----------------     g----------------   
    d-------------7--    d-------------7--     d----------------
    a---7-7-5-7-8-5--    a---7---5-7-8-5--     a----------------
    e---5-5-3-5-6----    e---5---3-5-6----     e---0--3--0--3--- 
    
    
    
    Riff 5:               Riff 6:
    e---3--1-----0---     e----------------
    b----------------     b----------------
    g----------------     g----------------
    d----------------     d-----------6----
    a----------------     a---7-7-5-7-4-5--   
    e----------------     e---5-5-3-5---3-- 
    
    
    -Intro: 
            Riff 1 Riff 2 Riff 1 (Riff 3+Riff 5)
            Riff 6 Riff 6 Riff 6 (Riff 3+Riff 5)
    
    A5
    Un galpon de luz, es el templo del momo                   
  • Intro - Versos
    G|-------------|
    D|-------------|
    A|-------------|
    E|-5-5-3-5-6-3-|
    
    Pre-verso
    G|-------|
    D|-------|
    A|-------|
    E|-5-4-3-|
    
    Solo de Guitarra
    G|------------|x4
    D|------------|
    A|------------|
    E|-555555-33--|
    
    Final del 5º verso ('Le dan a la F100...')
    G|--------|x2
    D|--------|
    A|--------|
    E|-5(x14)-|
    
    Escuchá la canción para saber el ritmo
  • +
    ¡Colabora con nosotros!
    Envíanos tu versión de esta canción






[El templo de momo chords][El templo de momo cifra]
© LaCuerda.net · aviso legal · privacidad · es · en · pt · contacto