Acordes de Guitarra » P »Pappo » Mejor que vos (Tab)

Mejor que vos
Pappo

  • Tablatura
    Hola gente, la city porteña esta que arde! Aca un temaso
    de Norberto “Pappo” Napolitano...
    
    INTRO:
    e|----------------------------------------------------------------------
    B|----------------------------------------------------------------------
    G|----------------------------------------------------------------------
    D|--4------------------------------2p4-4-4-4-7-4-2p4--------------------
    A|--4------0p2-2-2-2-5-2-0p2-2-2-2-------------------0p2-2-2-2-2-5------
    E|--2-------------------------------------------------------------------
    
    e|----------------------------------------------------------------------
    B|----------------------------------------------------------------------
    G|----------------------------------------------------------------------
    D|-0p2-2-2-2-2----------------------------------------------------------
    A|-------------5—0p2-2-2-2-0-----2-5-7-5-2------------------------------
    E|---------------------------2------------------------------------------
    
    
    Si una confusión 
  • Tab p/Bajo
    Es un tema muy facil, la parte marcada del principio sirve para todo el tema
    pero detalle compas por compas por las dudas.
    Los guiones marcan el comienzo de cada compas.
    
       -
    G|---------
    D|---------
    A|---------
    E|-2-------
    
       -                 -                 -
    G|------------------------------------------------------       
    D|------------------------------------------------------       |
    A|------------------------------------------------------       |
    E|-5h7-7-7-7-7-7-7-7-5h7-7-7-7-7-7-7-7-5h7-7-7-7-7-7-7-7       |
                                                                   |
       -               -               -               -           |
    G|--------------------------------------------------------     |
    D|--------------------------------------------------------     |
    A|-----------------------------5-5-7-7-7-7-7-7-7-7--------     |
    E|-2-2-2-2-2-2-2-5-7-7-7-7-7-7---------------------7-7-7-7     |
                                                                   |
               -        
  • Armónica
      este tema esta sacado con una armonica en c
    
    
    (3)3(4)...4
    
    (3)3(4)4(4)3(3)
    
    (3)4___(6)...(6)6(5)5(4)4(3)[32]
    
    3___(4)[(4)(5)](3)3(4)4(3)[32]
    
    3___(6)...(6)6(5)5(4)4(3)[32]
    
    
    bueno nose si esta muy bien yo lo ago y me sale bien
    si le asen un cambio me avisan chau
  • +
    ¡Colabora con nosotros!
    Envíanos tu versión de esta canción





© LaCuerda.net · aviso legal · privacidad · contacto