Tablatura para Bajo de Pappo: Mejor que vos
Conexión · Inscripción
Letras y Acordes
Pantalla Completa
Imprimir
Versión Texto
Añadir Favorito
Otras Versiones

Mostrar Diagramas
Desfile Automático
Formato del Texto


Mejor que vos(BAJ)

Pappo

calidad:
papp0593
AUTOR: Norberto Napolitano
ALBUM: Buscando un amor (2003)
Enviado por victor
Es un tema muy facil, la parte marcada del principio sirve para todo el tema
pero detalle compas por compas por las dudas.
Los guiones marcan el comienzo de cada compas.

   -
G|---------
D|---------
A|---------
E|-2-------

   -                 -                 -
G|------------------------------------------------------       
D|------------------------------------------------------       |
A|------------------------------------------------------       |
E|-5h7-7-7-7-7-7-7-7-5h7-7-7-7-7-7-7-7-5h7-7-7-7-7-7-7-7       |
                                                               |
   -               -               -               -           |
G|--------------------------------------------------------     |
D|--------------------------------------------------------     |
A|-----------------------------5-5-7-7-7-7-7-7-7-7--------     |
E|-2-2-2-2-2-2-2-5-7-7-7-7-7-7---------------------7-7-7-7     |
                                                               |
           -                                                   |
G|------------------------                                     |
D|------------------------                                     |
A|------------------------                                     |
E|-2-2-2-2-7-7-7-7-7-7-5-5                                     /

   -                 -                 -
“Si una confusion trae tormentos,  dentro de la concepción de la…
G|------------------------------------------------------
D|------------------------------------------------------
A|------------------------------------------------------
E|-5h7-7-7-7-7-7-7-7-5h7-7-7-7-7-7-7-7-5h7-7-7-7-7-7-7-0

   -               -              -               -
…ley…             …es un privilegio distinto, tambien es un…
G|--------------------------------------------------------
D|--------------------------------------------------------
A|-----------------------------5--7-7-7-7-7-7-7----------
E|-2-2-2-2-2-2-2-5-7-7-7-7-7-7------------------5-7-7-7-7

           -
…nuevo amanecer…
G|------------------------
D|------------------------
A|------------------------
E|-2-2-2-2-7-7-7-7-7-7-2-5

   -                 -                 -
G|----------------------------------------------------
D|----------------------------------------------------
A|----------------------------------------------------
E|-7-7-7-7-7-7-7-7-5h7-7-7-7-7-7-7-7-5h7-7-7-7-7-7-7-7

   -               -               -               -
G|--------------------------------------------------------
D|--------------------------------------------------------
A|-----------------------------5-5-7-7-7-7-7-7-7-7--------
E|-2-2-2-2-2-2-5-5-7-7-7-7-7-7---------------------7-7-7-7

           -
G|------------------------
D|------------------------
A|------------------------
E|-2-2-2-2-7-7-7-7-7-7-7-5

   -               -                   -
G|----------------------------------------------------
D|----------------------------------------------------
A|----------------------------------------------------
E|-7-7-7-7-7-7-7-7-5h7-7-7-7-7-7-7-7-5-7-7-7-7-7-7-7-7

   -               -               -               -
G|--------------------------------------------------------
D|--------------------------------------------------------
A|-----------------------------5-5-7-7-7-7-7-7-7----------
E|-2-2-2-2-2-2-2-2-7-7-7-7-7-7-------------------5-7-7-7-7

           -
G|------------------------
D|------------------------
A|------------------------
E|-2-2-2-2-7-7-7-7-7-7-7-7

   -                 -                 -
…Y si tienes encima el problema, si ves que vas derecho al pare-
G|----------------------------------------------------
D|----------------------------------------------------
A|----------------------------------------------------
E|-7-7-7-7-7-7-7-7-5h7-7-7-7-7-7-7-7-5-7-7-7-7-7-7-7-7

   -               -               -               -
don…             …hay que recorrer la superficie…  …tratar de conse-
G|--------------------------------------------------------
D|--------------------------------------------------------
A|-----------------------------5-5-7-7-7-7-7-7-7----------
E|-2-2-2-2-2-2-2-2-7-7-7-7-7-7-------------------5-7-7-7-0

           -
guir la solucion”
G|------------------------
D|------------------------
A|------------------------
E|-2-2-2-2-7-7-7-7-7-7-7-7

   -                 -                 -
G|----------------------------------------------------------------------
D|----------------------------------------------------------------------
A|----------------------------------------------------------------------
E|-5h7-7-7-7-2-2-2-2-5h7-7-7-7-7-7-7-5-7-7-7-0-2----------7-------------

h: hammer on (ligado)


Mejor que vos (Pappo)

Si una confusión trae tormentos,
dentro de la concepción de la ley,
es un privilegio distinto,
también es un nuevo amanecer.

Y si tienes encima el problema,
si ves que vas derecho al paredón,
hay que recorrer la superficie,
tratar de conseguir la solución.

Mientras su musica se siga tocando y escuchando el carpo jamas morira,
vivira eternamente en la memoria de todos.
Este fichero es trabajo propio de su transcriptor y representa su interpretación personal de la canción. El material contenido en esta página es
para exclusivo uso privado, por lo que se prohibe su reproducción o retransmisión, así como su uso para fines comerciales.

© LaCuerda.net · Aviso Legal · Privacidad