Acordes de Guitarra » P »Pappo » Sucio y desprolijo (Tab)

Sucio y desprolijo
Pappo

Letras, Acordes y Tabs para Guitarra, Bajo y Ukulele

  • B5
      Todas las mañanas son iguales,
    lindas, novedosas, especiales.
    Siguen reprochando memorales
    todo lo que yo hago está mal.
    
    G5                                  A5   B5  
      Son muchos pensamientos para una sola cosa,
    G5                                 A5   B5
      estoy algo cansado de vivir, en realidad.
    
    B5
      Yo que soy un hombre desprolijo
    no tengo conflictos con mi ser
    porque en la apariencia no me fijo,
    piensan que así no puedo ser.
    
    G5                         A    B5 
      No cambia nada estar un poco sucio,
    G5                 A5  B5
    
  •   A5
    *-------------------*---------------------*-------------------*
    *-------------------*---------------------*--1---------1------*
    *-------------------*---------------------*----2-0-1-2---2----*
    *--7-5-------5------*------------------5--*----------------2--*
    *------5-6-7---7-0--*--7-5-3^0-------3----*-------------------*
    *-------------------*----------3-4-5------*-------------------*
    
                                A5-G5-F5-C5
    *-----------------------------*--------------**
    *-----------------------------*--------------**
    *-----------------------------*-----------5--**
    *----5------5------5----------*--7--5--3--5--**
    *--7---7--6---6--5---5-3^0^3--*--7--5--3-----**
    *-----------------------------*--------------**
    
    riff 1(base)
    
    *------------------------------**
    *------------------------------**
    
  • intro: A5  A5-G5-F5-C5   A5 x6
    
     A5
     Todas las mañanas son iguales,
     lindas, novedosas y especiales,
     siguen reprochándome morales,
     todo lo que yo hago está mal.
    F5                                             A5 x2
      Son muchos pensamientos para una sola cosa,
    F5                                             A5 x2
      estoy algo cansado de vivir en realidad.
    
     A5
     Yo que soy un hombre desprolijo,
     no tengo conflictos con mi ser,
     porque en la apariencia no me fijo,
     piensan que así no puedo ser.
    F5                                    A5 x2
      No cambia nada estar un poco sucio,
    F5                        A5 x2
    
  • (Correccion definitiva de la anterior tablatura mia).
    El tema original tiene una afinacion “rara” (medio semitono mas agudo),por
    lo cual pase el tema por un editor de audio(Waveditor/Sony Vegas)para “pasarlo”
    a La 440 o Mi(afinacion standard)y rehice la tab anterior que tenia algunos
    errores.
    Recomendaciones por si quieren tocar arriba del tema(en el parlante
    izquierdo se escucha la viola sola con la bateria),
    1: pasen el tema por el editor de audio(acuerdense:Waveditor)y “corranlo”
    medio semiton mas grave o,
    2: afinen la guitarra medio semitono mas agudo
    
    G|-----------------------------------------5-----------5------
    D|-7--5--------5----------------------5-------5--5-6-7—(7)----
    A|-------5-6-7-(7)-0---5--3--------3----------------------7---
    E|---------------------------3-4-5----------------------------
    
    G|----------------------------------------------------------------------
    D|---5-----5-----5-----5-------------------------------------3/7--------
    A|-7---7-6---6-5---5-3---3-0---
  • +
    ¡Colabora con nosotros!
    Envíanos tu versión de esta canción
  • Tutorial
    HD
    Como tocar "Sucio y desprolijo" de Pappo SOLO
    22:24
  • Tutorial
    HD
    Como Tocar " Sucio y desprolijo" de Pappo INTRO Y VERSOS
    8:16
  • Tutorial
    HD
    Como tocar "Sucio y desprolijo" de Pappo PARTE FINAL
    4:55
  • Tutorial
    HD
    Como tocar "Sucio y desprolijo" de Pappo DEMO/COVER
    4:51

Letra de Sucio y desprolijo
Todas las mañanas son iguales,
lindas, novedosas, especiales.
Siguen reprochando memorales
todo lo que yo hago está mal.
Son muchos pensamientos para una sola cosa,
estoy algo cansado de vivir, en realidad.
Yo que soy un hombre desprolijo
no tengo conflictos con mi ser
porque en la apariencia no me fijo,
piensan que así no puedo ser.
No cambia nada estar un poco sucio,
si mi cabeza es eficaz.
No no no, no no no,
no no no, no no no.

Yo que soy un hombre desprolijo,
no tengo conflictos con mi ser
porque en la apariencia no me fijo,
piensan que así no puedo ser. Ser.
Son muchos pensamientos para una sola cosa,
estoy algo cansado de vivir, en realidad.
No cambia nada estar un poco sucio,
si mi cabeza es eficaz.
Si mi cabeza es eficaz.
Si mi cabeza es eficaz.
Durante B5 hacer esto:
fig 1:
Eso es todo. Saludos a todos los pibes de Del Viso y Alberti
(el Teletubi, Gogui, El Murciélago, Carlita (mi 'hermanita'),
Manu, Victor, y mi ahijadita Florencia. También para los pibes
del barrio Samoré y Cildañez). Nos estamos viendo.




[Sucio y desprolijo chords][Sucio y desprolijo cifra]
© LaCuerda.net · aviso legal · privacidad · es · en · pt · contacto