Tablatura para Guitarra de Pappo: Mejor que vos
Conexión · Inscripción
Letras y Acordes
Pantalla Completa
Imprimir
Versión Texto
Añadir Favorito
Otras Versiones

Mostrar Diagramas
Desfile Automático
Manipular Acordes
Formato del Texto


Mejor que vos(TAB)

Pappo

calidad:
papp0591
AUTOR: Norberto Napolitano
ALBUM: Buscando un amor (2003)
Enviado por Martín
Hola gente, la city porteña esta que arde! Aca un temaso
de Norberto “Pappo” Napolitano...

INTRO:
e|----------------------------------------------------------------------
B|----------------------------------------------------------------------
G|----------------------------------------------------------------------
D|--4------------------------------2p4-4-4-4-7-4-2p4--------------------
A|--4------0p2-2-2-2-5-2-0p2-2-2-2-------------------0p2-2-2-2-2-5------
E|--2-------------------------------------------------------------------

e|----------------------------------------------------------------------
B|----------------------------------------------------------------------
G|----------------------------------------------------------------------
D|-0p2-2-2-2-2----------------------------------------------------------
A|-------------5—0p2-2-2-2-0-----2-5-7-5-2------------------------------
E|---------------------------2------------------------------------------


Si una confusión trae tormentos
e|----------------------------------------------------------------------
B|----------------------------------------------------------------------
G|---4--4--4--7//--4-4--2/4~~~~-----------------------------------------
D|---4--4--4--5//--4-4------------2-------2-0---------------------------
A|---2--2--2--5//--2-2--------2-2-2-2-2-2-----2-------------------------
E|----------------------------------------------------------------------

Dentro de la construcción de la ley
e|----------------------------------------------------------------------
B|----------------------------------------------------------------------
G|----------------------------------------------------------------------
D|-------------4-4-7-7//-4-4--------------------------------------------
A|-2-2-2-2-4-2-4-4-7-7//-4-4--------------------------------------------
E|-------------2-2-5-5//-2-2--------------------------------------------

Es un privilegio distinto
e|----------------------------------------------------------------------
B|----------------------------------------------------------------------
G|-0h4-4-4-4-4--7--7/9-9-9-9-9------------------------------------------
D|-0h4-4-4-4-4--7--7/9-9-9-9-9------------------------------------------
A|-0h2-2-2-2-2--5--5/7-7-7-7-7/5----------------------------------------
E|---------------------------------7-7~~~~~-----------------------------

También es un nuevo amanecer
e|----------------------------------------------------------------------
B|----------------------------------------------------------------------
G|--4-4-4-4-----------4-4-4-2-4-----------------------------------------
D|--4-4-4-4--4-4-4-4--4-4-4-2-4-----------------------------------------
A|--2-2-2-2--4-4-4-4--2-2-2-0-2-----------------------------------------
E|-----------2-2-2-2----------------------------------------------------

SOLO:
e|--9b-------------------------------------------------------12/14~~~~~-
B|----10-10/12-12-10-7---------------------------------10/12------------
G|---------------------9-7-9-7----------------7-7-9/11------------------
D|-----------------------------9-9-9~~~~~~-7/9--------------------------
A|----------------------------------------------------------------------
E|----------------------------------------------------------------------

e|--10/7-----------7-10-7--------------------/10-7------7---------------
B|-------7-7--7-10-------10-7--/12-------7-10------10-7--10-7-----------
G|-------------------------------------7---------------------9-7-9-7----
D|---------------------------------7/9------------------------------9-9-
A|----------------------------------------------------------------------
E|----------------------------------------------------------------------

e|----------/12-10-7--------------------------10------------------------
B|--------12---------7------------10/12-12-12----12-10----/12-----------
G|-7/9-7b--------------9-7---/9-7----------------------11---------------
D|-------------------------9--------------------------------------------
A|----------------------------------------------------------------------
E|----------------------------------------------------------------------

SOLO DE ARMONICA

Y si tienes encima el problema
Si ves que vas derecho al paredón
Hay que recorrer la superficie
Tratar de conseguir la solución

FINAL:

e|-/7//-/19--/19-19-14-12-----------11/12-14-14-19-19/17-12-12/14--19b~~-
B|---------19------------15-12-15-12-------------------------------------
G|-----------------------------------------------------------------------
D|-----------------------------------------------------------------------
A|-----------------------------------------------------------------------
E|-----------------------------------------------------------------------

~   vibrato
/   slide
b   bent
//  desciende varios trastes
h   hammer
p   ligada

Besos especialísimos para Agostina, que en estos momentos esta en ezpaña.
te kiero mucho amiga, sabelO.
Este fichero es trabajo propio de su transcriptor y representa su interpretación personal de la canción. El material contenido en esta página es
para exclusivo uso privado, por lo que se prohibe su reproducción o retransmisión, así como su uso para fines comerciales.

© LaCuerda.net · Aviso Legal · Privacidad