Acordes de Guitarra » P »Pappo » El Viejo (Tab)

El Viejo
Pappo

Letras, Acordes y Tabs para Guitarra, Bajo y Ukulele

  • |---------------------------|
    |---------------------------|
    |---------------------------|
    |---------------------------|
    |---2-2---5--4-2--2-2-------|
    |---0-0---0--0-0--3-4-------|
    
    que nos ocurre despues de tanto tiempo
    reflexionamos al vernos al espejo
    que es lo que pasa me estoy viniendo viejo
    no se de que pensar si ya no se que es lo pienso
    
        A5
    yo soy un hombre bueno
                                     riff
    lo que pasa es que me estoy viniendo viejo          EST.
         G5                          D5
    tratare de hacer las cosas a su tiempo
         A5                           C5
    o si no no le dare importancia al tiempo, oh no
    
  •     |---------------------------|           |---------------------|
        |---------------------------|           |---------------------|
        |---------------------------| riff 1    |---------------------| riff 3
        |---------------------------|           |---------------------|
        |--------5---4--2-----------|           |---------------------|
        |---0-0----0-------3--4-----|           |-0--0--1--1--2--2--3-|
    
    
    
        |---------------------------|
        |---------------------------|
        |---------------------------| riff 2
        |--------5---4--2-----------|
        |---0-0----0-------3--4-----|
        |---------------------------|
    
    
    
     riff 1x4
    
    
  • 1|----------------------|---------
    2|----------------------|---------
    3|----------------------|---------
    4|----------------------|---------
    5|-2-2----5---4---2-----|---------
    6|-0-0--0---0---0---3-4-|-0-2-3-4-
    
    Que nos ocurre después de tanto tiempo
    Reflexionamos al vernos al espejo
    Que es lo que pasa me estoy viniendo viejo
    No sé de qué pensar si ya no sé qué es lo pienso
    
       LA
    Yo soy un hombre bueno
                                         Riff
    Lo que pasa es que me estoy viniendo viejo
         SOL                        RE
    Tratare de hacer las cosas a su tiempo
         LA                            DO
    O si no, no le daré importancia al cuerpo, oh no...
    
  •      (8 veces)                                         (2 veces)
    …ocurre,después…  …soy un hombre bueno, lo que…   …viejo…
    G|----------------|--------------------------------|----------------|
    D|----------------|-5-5-3--2-------5-5-3-3-2-2-1-1-|----------------|
    A|-5-5-3--2-------|----------5-2-2-----------------|-5-5-3--2-------|
    E|----------5-2-2-|--------------------------------|----------5-2---|
    
    …tratare de hacer las cosas…     …importancia al cuerpo, oh no…
    G|-----------------------------------------------7------------------
    D|-3-3-3---3-3--3---2-2-2---2-2--2-----------------8-8-8--8--8--8---
    A|--------3----3---2-------2----2-----------------------------------
    E|----------------------------------3--3--3--2-3--------------------
    
         (8 veces)
    G|----------------|
    D|----------------|
    A|-5-5-3--2-------|
    E|----------5-2-2-|
    
         (8 veces)                                         (2 veces)
    …no puede ser…    …soy un hombre bueno, lo que…   …viejo…
    G|----------------|
  • +
    ¡Colabora con nosotros!
    Envíanos tu versión de esta canción

Letra de El Viejo
que nos ocurre despues de tanto tiempo
reflexionamos al vernos al espejo
que es lo que pasa me estoy viniendo viejo
no se de que pensar si ya no se que es lo pienso
yo soy un hombre bueno
riff
lo que pasa es que me estoy viniendo viejo EST.
tratare de hacer las cosas a su tiempo
o si no no le dare importancia al tiempo, oh no
riff x 4
no puede ser que esto nos preocupe
si estoy naciendo que bueno, que bueno
para que tantos años de experiencia
si justo ahora me doy cuenta que no tengo
yo soy un hombre bueno
lo que pasa es que me estoy viniendo viejo EST.
tratare de hacer las cosas a su tiempo
o si no no le dare importancia al tiempo, oh no
no puede ser que esto nos preocupe
si estoy naciendo que bueno, que bueno
para que tantos años de experiencia
si justo ahora me doy cuenta que no tengo
yo soy un hombre bueno
lo que pasa es que me estoy viniendo viejo EST.
tratare de hacer las cosas a su tiempo
o si no no le dare importancia al tiempo, oh no
riff x 8
estrofa: riff principal (para pasar a est. hace la subida)
EST: A X 2 riff X G D A C
riff del final X 8
para los pibes de lujan!
vamos el dptoo!




[El Viejo chords][El Viejo cifra]
© LaCuerda.net · aviso legal · privacidad · es · en · pt · contacto