Acordes de Guitarra » P »Pappo » Quizás mañana (Tab)

Quizás mañana
Pappo

Letras, Acordes y Tabs para Guitarra, Bajo y Ukulele

  • ---------------------------------------------------------------
    
    Intro: B
    
               E                B
    Quizás mañana mi barca se irá
                                             E A E
    detrás de aquel viento que la hizo llegar,
                                      A
    y con ese viento tambien yo me iré,
                      E  B                   E A E
    detrás de esa barca para siempre tal vez.
    
              A              C
    Como soñándote a mar abierta,
                  E B               E
    con la tormenta y frío en mi voz,
                    A                   C
    gritaré tu nombre, por más que no pueda yo ni hablar,
           F# G# A Bb B
    
  •    Estiradas>>                                          B
       Estirar y bajar>>>                                   ba
       Slide>>>                                             s
       Sonidos armónicos>>>                                 <>
       Ligados ascendentes>                                 h
       Ligados descendentes>                                p
       Tremolo                                              *  
       Toca la nota siguente con la estirada mantenida      b/
    
    E  -------------------------------------------------------------------------
    B  --------12-14---------------------12-14-12-14bap12------------12-14-12---
    G  --10s13-------11---------10s13-13--------------------10s13-13------------
    D  -----------------14------------------------------------------------------
    A  -------------------------------------------------------------------------
    E  -------------------------------------------------------------------------
    
    E  -------14---------------------------------------------------12----14b-12-
    B  --14b/----14--15b-12----------------------------------12-14----14--------
    G  ---------------------14p12----12-------9-9-11----9-----------------------
    D  ---------------------------14-----9h11--------11-------------------------
    
  • Un hermosisimo tema
    Viva el carpo!!!!
    
    e|--------------------
    B|-----4--------------
    G|-------4------------
    D|---------4----------
    A|--2--------2--------
    E|--------------------
    
    
    Solo
    
    e|-----------------------------------------------------------------------
    B|------12-14---------------------12-14-12-12b14r12-12~~~~~~~------------
    G|--/13-------10h11-9~~~~~--/13-13---------------------------------------
    D|-----------------------------------------------------------------------
    A|-----------------------------------------------------------------------
    E|-----------------------------------------------------------------------
    
    e|----------------------14-----------------------------------------------
    B|--------12-14-12-12b14---12~~~-15b17-----------------------------------
    G|--/13-13----------------------------15b17--12--12b-------9-9-11--9/----
    D|---------------------------------------------14------9-11------11------
    A|-----------------------------------------------------------------------
    
  • “Quizás mañana,    mi barca se ira,  detrás de aquel viento,  que…
    G|------------------------------------------------------------------
    D|------------------------------------------------------------------
    A|-----------------------7-------9----------------------------------
    E|------------0-------7-------------7-------7--7----------7-------7-
      la hizo llegar,       y con ese viento, también yo me iré, detrás
    G|------------------------------------------------------------------
    D|-----------------7------------------------------------------------
    A|------------7----------7----------7----------7-------7----------7-
    E|-7-----------------------------7----------7-------------5---------
      de esa barca,   para siempre tal vez,            como soñándote
    G|-------------------------------------------------------------------
    D|---------------------------------------7--7----------6-------------
    A|------------7---------------------7----------7-7-7-9---7------4---7
    E|-5-------5---------5-6-7-
  • +
    ¡Colabora con nosotros!
    Envíanos tu versión de esta canción

Letra de Quizás mañana
Quizás mañana mi barca se irá
detrás de aquel viento que la hizo llegar,
y con ese viento tambien yo me iré,
detrás de esa barca para siempre tal vez.
Como soñándote a mar abierta,
con la tormenta y frío en mi voz,
gritaré tu nombre, por más que no pueda yo ni hablar,
y me hundiré en mi soledad.
Base de Solo: E-B-E-A-E-A-E-B-E-A-E
Como soñándote a mar abierta,
con la tormenta y frío en mi voz,
gritaré tu nombre, por más que no pueda yo ni hablar,
y me hundiré en mi soledad.
Quizás mañana mi barca se irá
detrás de aquel viento que la hizo llegar,
y con ese viento tambien yo me iré,
detrás de esa barca para siempre tal vez.
Te quiero nena, y siempre te querré!
Para Antenitas :$




[Quizás mañana chords][Quizás mañana cifra]
© LaCuerda.net · aviso legal · privacidad · es · en · pt · contacto