Acordes de Guitarra » P »los Panchos » Mar y Cielo (Tab)

Mar y Cielo
los Panchos

Letras, Notas, Punteos, Tablaturas y Acordes de Guitarra (Tabs & Chords)

  • Letra y Acordes
    Am
    Me tienes
                    E7
    pero de nada te vale
    
    soy tuyo
                       Am
    porque lo dicta un papel.
    
       A7
    MI vida
                     Dm
    la controlan las leyes
                    Am
    pero en mi corazón
                           B7
    que es el que siente amor
         E7        Am
    tan sólo mando yo.
    
    
  • Letra y Acordes
    INTRO: SIm SOL FA# FA#7 SIm SI7 MIm SIm FA# SIm FA#-SIm
    ORIGINAL rem (CEJILLA 3)
    
    SIm               SOL     FA#
    Me tienes pero de nada te vale
        FA#7                      SIm
    soy tuyo porque lo dicta un papel.
       SI7                   MIm
    Mi vida la controlan las leyes
                   SIm
    pero en mi corazón
                          FA#
    que es el que siente amor
                   SIm
    tan sólo mando yo.
    
                FA#
    El mar y el cielo
                       SIm
    se ven igual de azules
    
  • Tablatura
    E----------------------------------------------------------
    A----------------------------------------------------------
    D----------------------------------------------------------
    G-2-------2-----2------------------------------------------
    B---0-1-1---0-1---0-1-0-1-0-0-1-3-3-0-1-3-0-1-3-0-1-3-1-3-1
    e----------------------------------------------------------
    
    
    -----------------------------------------------------------
    -----------------------------------------------------------
    -----------------------------------------------------------
    -----------------------------------------------------------
    -0-1-3---2-3---2-3---2-3---2-3---3---3-2-3-----3-1-0-3-1-0-
    -------0-----0-----0-----0-----0---0-------0-1-------------
    
    
    -------------------------------
    -------------------------------
    -------------------------------
    2------------------------------     E7  Em
    
  • Tablatura
    A ---------------------—----------------------------------------
    E ----0--1--1-----0--1--1-------0--1--1------0--1--1---0--1--0--
    C --2-----------2------------2-------------2--------------------
    G --------------------------------------------------------------
    D --------------------------------------------------------------
    A --------------------------------------------------------------
    
    
    A ---------------------—-------------------------------------------0-
    E --0--1--3--3---0--1--3--3---0--1--3--3---0--1--3--3---1--0--1--3---
    C -------------------------------------------------------------------
    G -------------------------------------------------------------------
    D -------------------------------------------------------------------
    A -------------------------------------------------------------------
    
    
    
    A ---------------------—-----------------------------------------0--1-
    E --2--3--5--5---2--3--5--5---2--3--5--5----2--3--5--5---3--2--3------
    C --------------------------------------
  • +
    ¡Colabora con nosotros!
    Envíanos tu versión de esta canción

Letra de Mar y Cielo
Me tienes
pero de nada te vale
soy tuyo
porque lo dicta un papel.
la controlan las leyes
pero en mi corazón
que es el que siente amor
tan sólo mando yo.
El mar y el cielo
se ven igual de azules
y en la distancia
parece que se unen,
mejor es que recuerdes
que el cielo siempre es cielo
que nunca, nunca nunca,
el mar lo alcanzará.
Permíteme igualarme
con el cielo
que a ti te corresponde
ser el mar.



© LaCuerda.net · Aviso Legal · Privacidad