Tablatura para Guitarra de los Panchos: Mar y Cielo
Conexión · Inscripción
Letras y Acordes
Pantalla Completa
Imprimir
Versión Texto
Añadir Favorito
Otras Versiones

Mostrar Diagramas
Desfile Automático
Manipular Acordes
Formato del Texto


Mar y Cielo(TAB)

los Panchos

calidad:
pnch0282
AUTOR: Julito Rodriguez Reyes
ALBUM: Tesoros Musicales
Enviado por jose
E----------------------------------------------------------
A----------------------------------------------------------
D----------------------------------------------------------
G-2-------2-----2------------------------------------------
B---0-1-1---0-1---0-1-0-1-0-0-1-3-3-0-1-3-0-1-3-0-1-3-1-3-1
e----------------------------------------------------------


-----------------------------------------------------------
-----------------------------------------------------------
-----------------------------------------------------------
-----------------------------------------------------------
-0-1-3---2-3---2-3---2-3---2-3---3---3-2-3-----3-1-0-3-1-0-
-------0-----0-----0-----0-----0---0-------0-1-------------


-------------------------------
-------------------------------
-------------------------------
2------------------------------ E7 Em -0-1--------------------------- -----0-5-7-8-7-5-8-7-5-6-4-6-5-
Este fichero es trabajo propio de su transcriptor y representa su interpretación personal de la canción. El material contenido en esta página es
para exclusivo uso privado, por lo que se prohibe su reproducción o retransmisión, así como su uso para fines comerciales.

© LaCuerda.net · Aviso Legal · Privacidad