Tablatura para Guitarra de los Panchos: Mar y Cielo
Conexión · Inscripción
Letras y Acordes
Pantalla Completa
Imprimir
Versión Texto
Añadir Favorito
Otras Versiones

Mostrar Diagramas
Desfile Automático
Manipular Acordes
Formato del Texto


Mar y Cielo(TAB)

los Panchos

calidad:
pnch0283
AUTOR: Julito Rodriguez Reyes
ALBUM: Tesoros Musicales
Enviado por Rogelio
A ---------------------—----------------------------------------
E ----0--1--1-----0--1--1-------0--1--1------0--1--1---0--1--0--
C --2-----------2------------2-------------2--------------------
G --------------------------------------------------------------
D --------------------------------------------------------------
A --------------------------------------------------------------


A ---------------------—-------------------------------------------0-
E --0--1--3--3---0--1--3--3---0--1--3--3---0--1--3--3---1--0--1--3---
C -------------------------------------------------------------------
G -------------------------------------------------------------------
D -------------------------------------------------------------------
A -------------------------------------------------------------------



A ---------------------—-----------------------------------------0--1-
E --2--3--5--5---2--3--5--5---2--3--5--5----2--3--5--5---3--2--3------
C --------------------------------------------------------------------
G --------------------------------------------------------------------
D --------------------------------------------------------------------
A --------------------------------------------------------------------



A ---------------------—------0--5--7--8--7--5--8--7--5--4--7--5------
E --3--1--0--3--1--0----0--1------------------------------------------
C --------------------2-----------------------------------------------
G --------------------------------------------------------------------
D --------------------------------------------------------------------
A --------------------------------------------------------------------

Saludos a todos corregi lo que estaba porque habia notas que no eran.
Este fichero es trabajo propio de su transcriptor y representa su interpretación personal de la canción. El material contenido en esta página es
para exclusivo uso privado, por lo que se prohibe su reproducción o retransmisión, así como su uso para fines comerciales.

© LaCuerda.net · Aviso Legal · Privacidad