Acordes de Guitarra » M »Música de TV » Dragon ball Z - Angeles Fuimos (Tab)

Dragon ball Z - Angeles Fuimos
Música de TV

Letras, Acordes y Tabs para Guitarra, Bajo y Ukulele

  • F#m        D        E        F#
    F#m        D        E         C#
    
    F#m           D
    Hace tiempo que los recuerdos
    E             F#m
    Se van alejando ya
    F#m            D
    Ángeles fuimos y desde el cielo
    E           F#m          E
    Semillas dimos de amor
    
    A                    D            E
    La tristeza de este mundo se borró
            A
    Y viendo el cielo azul
    A                 D                E
    La amistad y el amor siempre brillaron
                 A
    Y hoy también lo harán
    
  • B|---------------------------------|----------------------------------|
    G|---------------------------------|----------------------------------|
    D|---------------------------------|----------------------------------|
    A|---------------------------------|----------------------------------|
    E|---------------------------------|----------------------------------|
    
    
    E|-------------0------------------|------------------------------|
    B|-3-3-3-3-3-3---1-0-----0-1-1-0-0|----------0-------0-----0-----|
    G|-------------------2-2----------|0-0-0-0-0---2-2-0---2-2---2-0-|
    D|--------------------------------|------------------------------|
    A|--------------------------------|------------------------------|
    E|--------------------------------|------------------------------|
    
    
    
    E|-----------------------0--|-------------------|----0---------------------0|
    B|-------0-----0-0-0-1-3---1|----0---------0-1-3|3-0---3-3-3-3-1-0-0-0-1-3--|
    G|-0-0-2---2----------------|0-2---2-2-2-2------|---------------------------|
    D|-----------3--------------|-------------------|---------------------------|
    
  •    F#m             D            E            F#m
    e--------------------------------------------------------------
    B--------------------------------------------------------------
    G-----------------------------------------------------4--------
    D------7---6---7-----7---6---7-----9---7---9---4-6-7---7-6-4--
    A--4-4---4---4---5-5---5---5---7-7---7---7---9-----------------
    E--------------------------------------------------------------
    
    
       F#m          D             E              C#sus4      C#
    e--------------------------------------------4-------4---7----------------
    B--------------------------------------------7-------7---6----------------
    G--------------------------------------------6-------6---6-6-4-2-4-2-1----
    D----7---6---7-----7---6---7-----9---7---9---6-------6---6-------------4--
    A--4---4---4---5-5---5---5---7-7---7---7---9-4-4-4-4-4-4-4----------------
    E-------------------------------------------------------------------------
    
    
    Estrofa 1:
    
    
  • +
    ¡Colabora con nosotros!
    Envíanos tu versión de esta canción
  • Tutorial
    HD
    Como tocar "Angeles Fuimos" de Dragon Ball Z - Tutorial Guitarra (Acordes)
    HD
    11:37

Letra de Dragon ball Z - Angeles Fuimos
Hace tiempo que los recuerdos
Se van alejando ya
Ángeles fuimos y desde el cielo
Semillas dimos de amor
La tristeza de este mundo se borró
Y viendo el cielo azul
La amistad y el amor siempre brillaron
Y hoy también lo harán
Mis alas no tengo, desaparecieron ya
Pero conmigo tengo el poder
En tu pupila el arco iris se reflejó
Y el amor florece en tu corazón
(sigue) teniendo fe y esperanza
Que el mañana va a cambiar
Este desierto se transformará
Paraíso es lo que pronto será
Abre tu corazón
La magia y el amor... son verdad
Pasa el tiempo y en tu mirada
inocencia puedo ver
Eres la misma de aquel recuerdo
de nuestra bella niñez
Y volando por las nubes lograrás
la luna al fin tocar
Recorriendo jardines infinitos
por la eternidad
Ya la magia es nuestra nunca nadie romperá
los bellos lazos de nuestra amistad
En tu pupila el arco iris se reflejó
Y el amor florece en tu corazón
(sigue) teniendo fe y esperanza
Que el mañana va a cambiar
Este desierto se transformará
Paraíso es lo que pronto será
Abre tu corazón
La magia y el amor... son verdad
La esperanza renacerá
el mañana grandes dichas tendrá
Sigue teniendo fe y esperanza
en que tus sueños cumplirás
Sé que tu alma se transformará
una luz de vida en ti nacerá
Abre tu corazón
La magia y el amor... son verdad




[Dragon ball Z - Angeles Fuimos chords][Dragon ball Z - Angeles Fuimos cifra]
© LaCuerda.net · aviso legal · privacidad · es · en · pt · contacto