Tablatura para Guitarra de Música de TV: Dragon ball Z - Angeles Fuimos
Conexión · Inscripción
Letras y Acordes
Pantalla Completa
Imprimir
Versión Texto
Añadir Favorito
Otras Versiones

Mostrar Diagramas
Desfile Automático
Manipular Acordes
Formato del Texto


Dragon ball Z - Angeles Fuimos(TAB)

Música de TV

calidad:
mdtv6762
AUTOR: Adrian Barba
ALBUM: Dragon ball z
Enviado por Federico
E|-0-0-2-3-0-0-0-2-3-2-2-3-5-3-0-0-|0-0-0-2-3-0-0-0-2-3-2-3-5-3-0-0-0-|
B|---------------------------------|----------------------------------|
G|---------------------------------|----------------------------------|
D|---------------------------------|----------------------------------|
A|---------------------------------|----------------------------------|
E|---------------------------------|----------------------------------|


E|-------------0------------------|------------------------------|
B|-3-3-3-3-3-3---1-0-----0-1-1-0-0|----------0-------0-----0-----|
G|-------------------2-2----------|0-0-0-0-0---2-2-0---2-2---2-0-|
D|--------------------------------|------------------------------|
A|--------------------------------|------------------------------|
E|--------------------------------|------------------------------|



E|-----------------------0--|-------------------|----0---------------------0|
B|-------0-----0-0-0-1-3---1|----0---------0-1-3|3-0---3-3-3-3-1-0-0-0-1-3--|
G|-0-0-2---2----------------|0-2---2-2-2-2------|---------------------------|
D|-----------3--------------|-------------------|---------------------------|
A|--------------------------|-------------------|---------------------------|
E|--------------------------|-------------------|---------------------------|



E|---------------------|-----------------------------|----------------|
B|-1-0-----------3-0-0-|---|----------------0--------|----------------|
G|-----2-2-2-2-2------2|0---0-0-0-0---0-0-0---2-2-0-2|----------------|
D|---------------------|--4---------4----------------|----------------|
A|---------------------|-----------------------------|----------------|
E|---------------------|-----------------------------|----------------|


E|-----------------0-0-0---------0-2-3-|-----------------------------|
B|-3-3-1-0-0-0-1-3-------4-4-4-4-------|3-2-0-2-3-----2-3-----------0|
G|-------------------------------------|---------3-3-----1-0---3-0---|
D|-------------------------------------|---------------------2-------|
A|-------------------------------------|-----------------------------|
E|-------------------------------------|-----------------------------|




Esta tab no es mia
Este fichero es trabajo propio de su transcriptor y representa su interpretación personal de la canción. El material contenido en esta página es
para exclusivo uso privado, por lo que se prohibe su reproducción o retransmisión, así como su uso para fines comerciales.

© LaCuerda.net · Aviso Legal · Privacidad